  0
SECTION
  2
HEADER
  9
$ACADVER
  1
AC1018
  9
$ACADMAINTVER
 70
   104
  9
$DWGCODEPAGE
  3
ANSI_1252
  9
$LASTSAVEDBY
  1
lwoollen
  9
$INSBASE
 10
0.0
 20
0.0
 30
0.0
  9
$EXTMIN
 10
-83.57303994417703
 20
-222.2970817732071
 30
-0.0000000000112498
  9
$EXTMAX
 10
560.7939747033133
 20
365.0262679791265
 30
0.0000000000002956
  9
$LIMMIN
 10
0.0
 20
0.0
  9
$LIMMAX
 10
12.0
 20
9.0
  9
$ORTHOMODE
 70
     1
  9
$REGENMODE
 70
     1
  9
$FILLMODE
 70
     1
  9
$QTEXTMODE
 70
     0
  9
$MIRRTEXT
 70
     0
  9
$LTSCALE
 40
1.0
  9
$ATTMODE
 70
     1
  9
$TEXTSIZE
 40
27.0
  9
$TRACEWID
 40
0.05
  9
$TEXTSTYLE
  7
ROMANS
  9
$CLAYER
  8
0
  9
$CELTYPE
  6
BYLAYER
  9
$CECOLOR
 62
     1
  9
$CELTSCALE
 40
1.0
  9
$DISPSILH
 70
     0
  9
$DIMSCALE
 40
5.0
  9
$DIMASZ
 40
2.0
  9
$DIMEXO
 40
4.5
  9
$DIMDLI
 40
0.0
  9
$DIMRND
 40
0.01
  9
$DIMDLE
 40
0.0
  9
$DIMEXE
 40
1.5
  9
$DIMTP
 40
0.0
  9
$DIMTM
 40
0.0
  9
$DIMTXT
 40
1.8
  9
$DIMCEN
 40
0.0
  9
$DIMTSZ
 40
0.0
  9
$DIMTOL
 70
     0
  9
$DIMLIM
 70
     0
  9
$DIMTIH
 70
     0
  9
$DIMTOH
 70
     0
  9
$DIMSE1
 70
     0
  9
$DIMSE2
 70
     0
  9
$DIMTAD
 70
     1
  9
$DIMZIN
 70
    12
  9
$DIMBLK
  1

  9
$DIMASO
 70
     1
  9
$DIMSHO
 70
     1
  9
$DIMPOST
  1

  9
$DIMAPOST
  1

  9
$DIMALT
 70
     0
  9
$DIMALTD
 70
     2
  9
$DIMALTF
 40
25.4
  9
$DIMLFAC
 40
1.0
  9
$DIMTOFL
 70
     0
  9
$DIMTVP
 40
0.0
  9
$DIMTIX
 70
     0
  9
$DIMSOXD
 70
     0
  9
$DIMSAH
 70
     0
  9
$DIMBLK1
  1

  9
$DIMBLK2
  1

  9
$DIMSTYLE
  2
1-20
  9
$DIMCLRD
 70
     0
  9
$DIMCLRE
 70
     0
  9
$DIMCLRT
 70
     0
  9
$DIMTFAC
 40
1.25
  9
$DIMGAP
 40
1.0
  9
$DIMJUST
 70
     0
  9
$DIMSD1
 70
     0
  9
$DIMSD2
 70
     0
  9
$DIMTOLJ
 70
     1
  9
$DIMTZIN
 70
    12
  9
$DIMALTZ
 70
    12
  9
$DIMALTTZ
 70
    12
  9
$DIMUPT
 70
     0
  9
$DIMDEC
 70
     3
  9
$DIMTDEC
 70
     3
  9
$DIMALTU
 70
     2
  9
$DIMALTTD
 70
     2
  9
$DIMTXSTY
  7
ROMANS
  9
$DIMAUNIT
 70
     0
  9
$DIMADEC
 70
     0
  9
$DIMALTRND
 40
0.0
  9
$DIMAZIN
 70
     0
  9
$DIMDSEP
 70
    46
  9
$DIMATFIT
 70
     1
  9
$DIMFRAC
 70
     0
  9
$DIMLDRBLK
  1

  9
$DIMLUNIT
 70
     2
  9
$DIMLWD
 70
    -2
  9
$DIMLWE
 70
    -2
  9
$DIMTMOVE
 70
     0
  9
$LUNITS
 70
     2
  9
$LUPREC
 70
     4
  9
$SKETCHINC
 40
0.1
  9
$FILLETRAD
 40
1.0
  9
$AUNITS
 70
     0
  9
$AUPREC
 70
     6
  9
$MENU
  1
acad
  9
$ELEVATION
 40
0.0
  9
$PELEVATION
 40
0.0
  9
$THICKNESS
 40
0.0
  9
$LIMCHECK
 70
     0
  9
$CHAMFERA
 40
0.0
  9
$CHAMFERB
 40
0.0
  9
$CHAMFERC
 40
0.0
  9
$CHAMFERD
 40
0.0
  9
$SKPOLY
 70
     0
  9
$TDCREATE
 40
2451487.380601620
  9
$TDUCREATE
 40
2451487.380601620
  9
$TDUPDATE
 40
2454777.626642905
  9
$TDUUPDATE
 40
2454777.626642905
  9
$TDINDWG
 40
1.9713276273
  9
$TDUSRTIMER
 40
1.9713154745
  9
$USRTIMER
 70
     1
  9
$ANGBASE
 50
0.0
  9
$ANGDIR
 70
     0
  9
$PDMODE
 70
     3
  9
$PDSIZE
 40
0.0
  9
$PLINEWID
 40
0.0
  9
$SPLFRAME
 70
     0
  9
$SPLINETYPE
 70
     6
  9
$SPLINESEGS
 70
     8
  9
$HANDSEED
  5
990
  9
$SURFTAB1
 70
     6
  9
$SURFTAB2
 70
     6
  9
$SURFTYPE
 70
     6
  9
$SURFU
 70
     6
  9
$SURFV
 70
     6
  9
$UCSBASE
  2

  9
$UCSNAME
  2

  9
$UCSORG
 10
0.0
 20
0.0
 30
0.0
  9
$UCSXDIR
 10
1.0
 20
0.0
 30
0.0
  9
$UCSYDIR
 10
0.0
 20
1.0
 30
0.0
  9
$UCSORTHOREF
  2

  9
$UCSORTHOVIEW
 70
     0
  9
$UCSORGTOP
 10
0.0
 20
0.0
 30
0.0
  9
$UCSORGBOTTOM
 10
0.0
 20
0.0
 30
0.0
  9
$UCSORGLEFT
 10
0.0
 20
0.0
 30
0.0
  9
$UCSORGRIGHT
 10
0.0
 20
0.0
 30
0.0
  9
$UCSORGFRONT
 10
0.0
 20
0.0
 30
0.0
  9
$UCSORGBACK
 10
0.0
 20
0.0
 30
0.0
  9
$PUCSBASE
  2

  9
$PUCSNAME
  2

  9
$PUCSORG
 10
0.0
 20
0.0
 30
0.0
  9
$PUCSXDIR
 10
1.0
 20
0.0
 30
0.0
  9
$PUCSYDIR
 10
0.0
 20
1.0
 30
0.0
  9
$PUCSORTHOREF
  2

  9
$PUCSORTHOVIEW
 70
     0
  9
$PUCSORGTOP
 10
0.0
 20
0.0
 30
0.0
  9
$PUCSORGBOTTOM
 10
0.0
 20
0.0
 30
0.0
  9
$PUCSORGLEFT
 10
0.0
 20
0.0
 30
0.0
  9
$PUCSORGRIGHT
 10
0.0
 20
0.0
 30
0.0
  9
$PUCSORGFRONT
 10
0.0
 20
0.0
 30
0.0
  9
$PUCSORGBACK
 10
0.0
 20
0.0
 30
0.0
  9
$USERI1
 70
     0
  9
$USERI2
 70
     0
  9
$USERI3
 70
     0
  9
$USERI4
 70
     0
  9
$USERI5
 70
     0
  9
$USERR1
 40
0.0
  9
$USERR2
 40
0.0
  9
$USERR3
 40
0.0
  9
$USERR4
 40
0.0
  9
$USERR5
 40
0.0
  9
$WORLDVIEW
 70
     1
  9
$SHADEDGE
 70
     3
  9
$SHADEDIF
 70
    70
  9
$TILEMODE
 70
     1
  9
$MAXACTVP
 70
    16
  9
$PINSBASE
 10
0.0
 20
0.0
 30
0.0
  9
$PLIMCHECK
 70
     0
  9
$PEXTMIN
 10
1.000000000000000E+20
 20
1.000000000000000E+20
 30
1.000000000000000E+20
  9
$PEXTMAX
 10
-1.000000000000000E+20
 20
-1.000000000000000E+20
 30
-1.000000000000000E+20
  9
$PLIMMIN
 10
-3.098506463153928
 20
-6.304750307687704
  9
$PLIMMAX
 10
405.2985964425213
 20
282.35287948606
  9
$UNITMODE
 70
     0
  9
$VISRETAIN
 70
     0
  9
$PLINEGEN
 70
     0
  9
$PSLTSCALE
 70
     0
  9
$TREEDEPTH
 70
  3020
  9
$CMLSTYLE
  2
STANDARD
  9
$CMLJUST
 70
     0
  9
$CMLSCALE
 40
1.0
  9
$PROXYGRAPHICS
 70
     1
  9
$MEASUREMENT
 70
     0
  9
$CELWEIGHT
370
    -1
  9
$ENDCAPS
280
     0
  9
$JOINSTYLE
280
     0
  9
$LWDISPLAY
290
     0
  9
$INSUNITS
 70
     0
  9
$HYPERLINKBASE
  1

  9
$STYLESHEET
  1
Ancon pen settings.ctb
  9
$XEDIT
290
     1
  9
$CEPSNTYPE
380
     0
  9
$PSTYLEMODE
290
     1
  9
$FINGERPRINTGUID
  2
{3B07D792-2A69-11D5-B3FC-00105A3DEFDC}
  9
$VERSIONGUID
  2
{ABB98F66-8FF4-45A4-AA86-1C726E515D18}
  9
$EXTNAMES
290
     1
  9
$PSVPSCALE
 40
0.0
  9
$OLESTARTUP
290
     0
  9
$SORTENTS
280
   127
  9
$INDEXCTL
280
     0
  9
$HIDETEXT
280
     0
  9
$XCLIPFRAME
290
     0
  9
$HALOGAP
280
     0
  9
$OBSCOLOR
 70
   257
  9
$OBSLTYPE
280
     0
  9
$INTERSECTIONDISPLAY
280
     0
  9
$INTERSECTIONCOLOR
 70
   257
  9
$DIMASSOC
280
     1
  9
$PROJECTNAME
  1

  0
ENDSEC
  0
SECTION
  2
CLASSES
  0
CLASS
  1
DICTIONARYVAR
  2
AcDbDictionaryVar
  3
ObjectDBX Classes
 90
        0
 91
        1
280
     0
281
     0
  0
CLASS
  1
ACDBDICTIONARYWDFLT
  2
AcDbDictionaryWithDefault
  3
ObjectDBX Classes
 90
        0
 91
        1
280
     0
281
     0
  0
CLASS
  1
MATERIAL
  2
AcDbMaterial
  3
ObjectDBX Classes
 90
     1024
 91
        3
280
     0
281
     0
  0
CLASS
  1
VISUALSTYLE
  2
AcDbVisualStyle
  3
ObjectDBX Classes
 90
     4095
 91
       16
280
     0
281
     0
  0
CLASS
  1
TABLESTYLE
  2
AcDbTableStyle
  3
ObjectDBX Classes
 90
     4095
 91
        1
280
     0
281
     0
  0
CLASS
  1
DIMASSOC
  2
AcDbDimAssoc
  3
"AcDbDimAssoc|Product Desc:     AcDim ARX App For Dimension|Company:          Autodesk, Inc.|WEB Address:      www.autodesk.com"
 90
        0
 91
        0
280
     0
281
     0
  0
CLASS
  1
SORTENTSTABLE
  2
AcDbSortentsTable
  3
ObjectDBX Classes
 90
        0
 91
        2
280
     0
281
     0
  0
ENDSEC
  0
SECTION
  2
TABLES
  0
TABLE
  2
VPORT
  5
1D
102
{ACAD_XDICTIONARY
360
4A8
102
}
330
0
100
AcDbSymbolTable
 70
     1
  0
VPORT
  5
1E
330
1D
100
AcDbSymbolTableRecord
100
AcDbViewportTableRecord
  2
*Active
 70
     0
 10
0.0
 20
0.0
 11
1.0
 21
1.0
 12
275.602177940981
 22
87.35202048973025
 13
0.0
 23
0.0
 14
0.5
 24
0.5
 15
0.0
 25
0.0
 16
0.0
 26
0.0
 36
1.0
 17
0.0
 27
0.0
 37
0.0
 40
656.7181338374455
 41
1.618655692729766
 42
50.0
 43
0.0
 44
0.0
 50
0.0
 51
0.0
 71
     8
 72
   100
 73
     1
 74
     1
 75
     0
 76
     0
 77
     0
 78
     0
281
     0
 65
     1
110
0.0
120
0.0
130
0.0
111
1.0
121
0.0
131
0.0
112
0.0
122
1.0
132
0.0
 79
     0
146
0.0
  0
ENDTAB
  0
TABLE
  2
LTYPE
  5
18
330
0
100
AcDbSymbolTable
 70
     2
  0
LTYPE
  5
19
330
18
100
AcDbSymbolTableRecord
100
AcDbLinetypeTableRecord
  2
BYBLOCK
 70
     0
  3

 72
    65
 73
     0
 40
0.0
  0
LTYPE
  5
1A
330
18
100
AcDbSymbolTableRecord
100
AcDbLinetypeTableRecord
  2
BYLAYER
 70
     0
  3

 72
    65
 73
     0
 40
0.0
  0
LTYPE
  5
A
330
18
100
AcDbSymbolTableRecord
100
AcDbLinetypeTableRecord
  2
CONTINUOUS
 70
     0
  3
Solid line
 72
    65
 73
     0
 40
0.0
  0
ENDTAB
  0
TABLE
  2
LAYER
  5
14
102
{ACAD_XDICTIONARY
360
113
102
}
330
0
100
AcDbSymbolTable
 70
     7
  0
LAYER
  5
6
330
14
100
AcDbSymbolTableRecord
100
AcDbLayerTableRecord
  2
0
 70
     0
 62
     7
  6
CONTINUOUS
370
    -3
390
7
  0
LAYER
  5
2A
330
14
100
AcDbSymbolTableRecord
100
AcDbLayerTableRecord
  2
ANCON-SUPPORT
 70
     0
 62
     3
  6
CONTINUOUS
370
    -3
390
7
  0
LAYER
  5
38
330
14
100
AcDbSymbolTableRecord
100
AcDbLayerTableRecord
  2
ANCON-STRUC
 70
     0
 62
     2
  6
CONTINUOUS
370
    -3
390
7
  0
LAYER
  5
2D
330
14
100
AcDbSymbolTableRecord
100
AcDbLayerTableRecord
  2
ANCON-MASONRY
 70
     0
 62
     1
  6
CONTINUOUS
370
    -3
390
7
  0
LAYER
  5
66
330
14
100
AcDbSymbolTableRecord
100
AcDbLayerTableRecord
  2
ANCON-CHANNEL
 70
     0
 62
     1
  6
CONTINUOUS
370
    -3
390
7
  0
LAYER
  5
AD
330
14
100
AcDbSymbolTableRecord
100
AcDbLayerTableRecord
  2
ANCON-TEXT
 70
     0
 62
     6
  6
CONTINUOUS
370
    -3
390
7
  0
LAYER
  5
A0
330
14
100
AcDbSymbolTableRecord
100
AcDbLayerTableRecord
  2
ANCON-TIE
 70
     0
 62
     1
  6
CONTINUOUS
370
    -3
390
7
  0
ENDTAB
  0
TABLE
  2
STYLE
  5
15
330
0
100
AcDbSymbolTable
 70
     3
  0
STYLE
  5
16
330
15
100
AcDbSymbolTableRecord
100
AcDbTextStyleTableRecord
  2
STANDARD
 70
     0
 40
0.0
 41
1.0
 50
0.0
 71
     0
 42
0.2
  3
txt
  4

  0
STYLE
  5
23
330
15
100
AcDbSymbolTableRecord
100
AcDbTextStyleTableRecord
  2
ROMANS
 70
     0
 40
0.0
 41
1.0
 50
0.0
 71
     0
 42
27.0
  3
romans
  4

  0
ENDTAB
  0
TABLE
  2
VIEW
  5
1B
330
0
100
AcDbSymbolTable
 70
     0
  0
ENDTAB
  0
TABLE
  2
UCS
  5
1C
330
0
100
AcDbSymbolTable
 70
     0
  0
ENDTAB
  0
TABLE
  2
APPID
  5
1F
330
0
100
AcDbSymbolTable
 70
     3
  0
APPID
  5
20
330
1F
100
AcDbSymbolTableRecord
100
AcDbRegAppTableRecord
  2
ACAD
 70
     0
  0
APPID
  5
112
330
1F
100
AcDbSymbolTableRecord
100
AcDbRegAppTableRecord
  2
ACAD_PSEXT
 70
     0
  0
APPID
  5
1A9
330
1F
100
AcDbSymbolTableRecord
100
AcDbRegAppTableRecord
  2
ACAD_EXEMPT_FROM_CAD_STANDARDS
 70
     0
  0
ENDTAB
  0
TABLE
  2
DIMSTYLE
  5
21
330
0
100
AcDbSymbolTable
 70
     3
100
AcDbDimStyleTable
 71
     1
340
22
  0
DIMSTYLE
105
22
330
21
100
AcDbSymbolTableRecord
100
AcDbDimStyleTableRecord
  2
1-20
 70
     0
 40
20.0
 41
2.0
 42
4.5
 43
0.0
 44
1.5
 45
1.000499999999999
 73
     0
 74
     0
 77
     1
 78
    12
140
1.8
141
0.0
146
1.25
147
0.01
271
     2
272
     2
279
     2
284
    12
285
    12
286
    12
340
23
  0
ENDTAB
  0
TABLE
  2
BLOCK_RECORD
  5
1
330
0
100
AcDbSymbolTable
 70
     2
  0
BLOCK_RECORD
  5
2
102
{ACAD_XDICTIONARY
360
3
102
}
330
1
100
AcDbSymbolTableRecord
100
AcDbBlockTableRecord
  2
*MODEL_SPACE
340
C
  0
BLOCK_RECORD
  5
E
102
{ACAD_XDICTIONARY
360
F
102
}
330
1
100
AcDbSymbolTableRecord
100
AcDbBlockTableRecord
  2
*PAPER_SPACE
340
13
  0
ENDTAB
  0
ENDSEC
  0
SECTION
  2
BLOCKS
  0
BLOCK
  5
5
330
2
100
AcDbEntity
  8
0
100
AcDbBlockBegin
  2
*MODEL_SPACE
 70
     0
 10
0.0
 20
0.0
 30
0.0
  3
*MODEL_SPACE
  1

  0
ENDBLK
  5
B
330
2
100
AcDbEntity
  8
0
100
AcDbBlockEnd
  0
BLOCK
  5
11
330
E
100
AcDbEntity
 67
     1
  8
0
100
AcDbBlockBegin
  2
*PAPER_SPACE
 70
     0
 10
0.0
 20
0.0
 30
0.0
  3
*PAPER_SPACE
  1

  0
ENDBLK
  5
12
330
E
100
AcDbEntity
 67
     1
  8
0
100
AcDbBlockEnd
  0
ENDSEC
  0
SECTION
  2
ENTITIES
  0
LINE
  5
2C
330
2
100
AcDbEntity
  8
ANCON-MASONRY
100
AcDbLine
 10
100.0
 20
214.9999999999989
 30
0.0
 11
202.5
 21
214.9999999999989
 31
0.0
  0
LINE
  5
2E
330
2
100
AcDbEntity
  8
ANCON-MASONRY
100
AcDbLine
 10
100.0
 20
289.9999999999989
 30
0.0
 11
202.5
 21
289.9999999999989
 31
0.0
  0
LINE
  5
2F
330
2
100
AcDbEntity
  8
ANCON-MASONRY
100
AcDbLine
 10
100.0
 20
224.9999999999989
 30
0.0
 11
202.5
 21
224.9999999999989
 31
0.0
  0
LINE
  5
30
330
2
100
AcDbEntity
  8
ANCON-MASONRY
100
AcDbLine
 10
100.0
 20
299.9999999999989
 30
0.0
 11
202.5
 21
299.9999999999989
 31
0.0
  0
LINE
  5
31
330
2
100
AcDbEntity
  8
ANCON-MASONRY
100
AcDbLine
 10
100.0
 20
74.99999999999886
 30
0.0
 11
202.5
 21
74.99999999999886
 31
0.0
  0
LINE
  5
32
330
2
100
AcDbEntity
  8
ANCON-MASONRY
100
AcDbLine
 10
100.0
 20
139.9999999999988
 30
0.0
 11
202.5
 21
139.9999999999988
 31
0.0
  0
LINE
  5
33
330
2
100
AcDbEntity
  8
ANCON-MASONRY
100
AcDbLine
 10
100.0
 20
149.9999999999988
 30
0.0
 11
202.5
 21
149.9999999999988
 31
0.0
  0
LINE
  5
34
330
2
100
AcDbEntity
  8
ANCON-MASONRY
100
AcDbLine
 10
100.0
 20
64.99999999999886
 30
0.0
 11
202.5
 21
64.99999999999886
 31
0.0
  0
LINE
  5
35
330
2
100
AcDbEntity
  8
ANCON-MASONRY
100
AcDbLine
 10
100.0
 20
-10.00000000000113
 30
0.0
 11
202.5
 21
-10.00000000000113
 31
0.0
  0
LINE
  5
36
330
2
100
AcDbEntity
  8
ANCON-MASONRY
100
AcDbLine
 10
100.0
 20
14.99999999999886
 30
0.0
 11
177.5
 21
14.99999999999886
 31
0.0
  0
LINE
  5
37
330
2
100
AcDbEntity
  8
ANCON-STRUC
100
AcDbLine
 10
0.0
 20
-75.39532824414141
 30
0.0
 11
0.0
 21
364.9999999999989
 31
0.0
  0
LINE
  5
39
330
2
100
AcDbEntity
  8
ANCON-MASONRY
100
AcDbLine
 10
100.0
 20
149.9999999999988
 30
0.0
 11
100.0
 21
214.9999999999989
 31
0.0
  0
LINE
  5
3A
330
2
100
AcDbEntity
  8
ANCON-MASONRY
100
AcDbLine
 10
100.0
 20
-75.00000000000113
 30
0.0
 11
100.0
 21
-10.00000000000113
 31
0.0
  0
LINE
  5
3E
330
2
100
AcDbEntity
  8
ANCON-MASONRY
100
AcDbLine
 10
100.0
 20
74.99999999999886
 30
0.0
 11
100.0
 21
139.9999999999988
 31
0.0
  0
LINE
  5
45
330
2
100
AcDbEntity
  8
ANCON-MASONRY
100
AcDbLine
 10
100.0
 20
14.99999999999886
 30
0.0
 11
100.0
 21
64.99999999999886
 31
0.0
  0
LINE
  5
65
330
2
100
AcDbEntity
  8
ANCON-CHANNEL
100
AcDbLine
 10
-16.25004228049943
 20
134.842011711521
 30
0.0
 11
-4.750126841496921
 21
128.201035134556
 31
0.0
  0
LINE
  5
67
330
2
100
AcDbEntity
  8
ANCON-CHANNEL
100
AcDbLine
 10
-17.50025368299407
 20
132.6770702691091
 30
0.0
 11
-6.000338243991564
 21
126.0360936921442
 31
0.0
  0
LINE
  5
68
330
2
100
AcDbEntity
  8
ANCON-CHANNEL
100
AcDbLine
 10
-6.000338243991564
 20
153.9639063078629
 30
0.0
 11
-17.50025368299407
 21
147.322929730898
 31
0.0
  0
LINE
  5
69
330
2
100
AcDbEntity
  8
ANCON-CHANNEL
100
AcDbLine
 10
-4.750126841496921
 20
151.798964865451
 30
0.0
 11
-16.25004228049943
 21
145.1579882884861
 31
0.0
  0
LINE
  5
6A
330
2
100
AcDbEntity
  8
ANCON-CHANNEL
100
AcDbLine
 10
-83.54403618259652
 20
135.0000000000035
 30
0.0
 11
-13.50000000000068
 21
135.0000000000035
 31
0.0
  0
LINE
  5
6B
330
2
100
AcDbEntity
  8
ANCON-CHANNEL
100
AcDbLine
 10
-13.50000000000068
 20
145.0000000000035
 30
0.0
 11
-83.54403618259652
 21
145.0000000000035
 31
0.0
  0
LINE
  5
6C
330
2
100
AcDbEntity
  8
ANCON-CHANNEL
100
AcDbLine
 10
-83.54403618259652
 20
145.0000000000035
 30
0.0
 11
-83.54403618259652
 21
135.0000000000035
 31
0.0
  0
LINE
  5
6D
330
2
100
AcDbEntity
  8
ANCON-CHANNEL
100
AcDbLine
 10
-61.30000000000177
 20
142.5000000000035
 30
0.0
 11
-61.30000000000177
 21
137.5000000000035
 31
0.0
  0
LINE
  5
6E
330
2
100
AcDbEntity
  8
ANCON-CHANNEL
100
AcDbLine
 10
-71.48044734660174
 20
143.5000000000035
 30
0.0
 11
-71.48044734660174
 21
136.5000000000035
 31
0.0
  0
LINE
  5
6F
330
2
100
AcDbEntity
  8
ANCON-CHANNEL
100
AcDbLine
 10
-70.48044734660175
 20
142.5000000000035
 30
0.0
 11
-70.48044734660175
 21
137.5000000000035
 31
0.0
  0
LINE
  5
70
330
2
100
AcDbEntity
  8
ANCON-CHANNEL
100
AcDbLine
 10
-72.48044734660175
 20
142.5000000000035
 30
0.0
 11
-72.48044734660175
 21
137.5000000000035
 31
0.0
  0
LINE
  5
71
330
2
100
AcDbEntity
  8
ANCON-CHANNEL
100
AcDbLine
 10
-60.30000000000177
 20
143.5000000000035
 30
0.0
 11
-60.30000000000177
 21
136.5000000000035
 31
0.0
  0
LINE
  5
72
330
2
100
AcDbEntity
  8
ANCON-CHANNEL
100
AcDbLine
 10
-59.30000000000177
 20
142.5000000000035
 30
0.0
 11
-59.30000000000177
 21
137.5000000000035
 31
0.0
  0
LINE
  5
73
330
2
100
AcDbEntity
  8
ANCON-CHANNEL
100
AcDbLine
 10
-28.95687423868799
 20
143.5000000000035
 30
0.0
 11
-28.95687423868799
 21
136.5000000000035
 31
0.0
  0
LINE
  5
74
330
2
100
AcDbEntity
  8
ANCON-CHANNEL
100
AcDbLine
 10
-29.95687423868799
 20
142.5000000000035
 30
0.0
 11
-29.95687423868799
 21
137.5000000000035
 31
0.0
  0
LINE
  5
75
330
2
100
AcDbEntity
  8
ANCON-CHANNEL
100
AcDbLine
 10
-27.95687423868799
 20
142.5000000000035
 30
0.0
 11
-27.95687423868799
 21
137.5000000000035
 31
0.0
  0
LINE
  5
76
330
2
100
AcDbEntity
  8
ANCON-CHANNEL
100
AcDbLine
 10
-38.72519003201865
 20
143.5000000000035
 30
0.0
 11
-38.72519003201865
 21
136.5000000000035
 31
0.0
  0
LINE
  5
77
330
2
100
AcDbEntity
  8
ANCON-CHANNEL
100
AcDbLine
 10
-49.70000000000232
 20
143.5000000000035
 30
0.0
 11
-49.70000000000232
 21
136.5000000000035
 31
0.0
  0
LINE
  5
78
330
2
100
AcDbEntity
  8
ANCON-CHANNEL
100
AcDbLine
 10
-39.72519003201865
 20
142.5000000000035
 30
0.0
 11
-39.72519003201865
 21
137.5000000000035
 31
0.0
  0
LINE
  5
79
330
2
100
AcDbEntity
  8
ANCON-CHANNEL
100
AcDbLine
 10
-37.72519003201864
 20
142.5000000000035
 30
0.0
 11
-37.72519003201864
 21
137.5000000000035
 31
0.0
  0
LINE
  5
7A
330
2
100
AcDbEntity
  8
ANCON-CHANNEL
100
AcDbLine
 10
-48.70000000000231
 20
142.5000000000035
 30
0.0
 11
-48.70000000000231
 21
137.5000000000035
 31
0.0
  0
LINE
  5
7B
330
2
100
AcDbEntity
  8
ANCON-CHANNEL
100
AcDbLine
 10
-50.70000000000232
 20
142.5000000000035
 30
0.0
 11
-50.70000000000232
 21
137.5000000000035
 31
0.0
  0
LINE
  5
7C
330
2
100
AcDbEntity
  8
ANCON-CHANNEL
100
AcDbLine
 10
-13.50000000000068
 20
135.0000000000035
 30
0.0
 11
-13.50000000000068
 21
145.0000000000035
 31
0.0
  0
LINE
  5
7D
330
2
100
AcDbEntity
  8
ANCON-CHANNEL
100
AcDbLine
 10
-13.50000000000068
 20
135.0000000000035
 30
0.0
 11
-13.50000000000068
 21
145.0000000000035
 31
0.0
  0
LINE
  5
7E
330
2
100
AcDbEntity
  8
ANCON-CHANNEL
100
AcDbLine
 10
-19.00000000000068
 20
135.2750000000032
 30
0.0
 11
-19.00000000000068
 21
144.7250000000039
 31
0.0
  0
LINE
  5
7F
330
2
100
AcDbEntity
  8
ANCON-CHANNEL
100
AcDbLine
 10
-16.50000000000068
 20
135.2750000000032
 30
0.0
 11
-16.50000000000068
 21
144.7250000000039
 31
0.0
  0
LINE
  5
80
330
2
100
AcDbEntity
  8
ANCON-CHANNEL
100
AcDbLine
 10
-16.00000000000068
 20
145.0000000000035
 30
0.0
 11
-16.00000000000068
 21
135.0000000000035
 31
0.0
  0
LINE
  5
81
330
2
100
AcDbEntity
  8
ANCON-CHANNEL
100
AcDbLine
 10
-18.98736924400123
 20
135.0000000000035
 30
0.0
 11
-25.99240717513999
 21
135.0000000000035
 31
0.0
  0
ARC
  5
82
330
2
100
AcDbEntity
  8
ANCON-CHANNEL
100
AcDbCircle
 10
-16.00000000000068
 20
135.2750000000032
 30
0.0
 40
3.0
100
AcDbArc
 50
180.0
 51
239.9944053317283
  0
LINE
  5
83
330
2
100
AcDbEntity
  8
ANCON-CHANNEL
100
AcDbLine
 10
-18.12726019059187
 20
135.0000000000035
 30
0.0
 11
-18.98736924400123
 21
135.0000000000035
 31
0.0
  0
ARC
  5
84
330
2
100
AcDbEntity
  8
ANCON-CHANNEL
100
AcDbCircle
 10
-16.00000000000068
 20
135.2750000000032
 30
0.0
 40
0.5
100
AcDbArc
 50
180.0
 51
239.9944053317283
  0
LINE
  5
85
330
2
100
AcDbEntity
  8
ANCON-CHANNEL
100
AcDbLine
 10
-16.41758232721327
 20
135.0000000000035
 30
0.0
 11
-17.53296911004668
 21
135.0000000000035
 31
0.0
  0
LINE
  5
86
330
2
100
AcDbEntity
  8
ANCON-CHANNEL
100
AcDbLine
 10
-13.50000000000068
 20
135.0000000000035
 30
0.0
 11
-16.41758232721327
 21
135.0000000000035
 31
0.0
  0
LINE
  5
87
330
2
100
AcDbEntity
  8
ANCON-CHANNEL
100
AcDbLine
 10
-18.98244518579281
 20
145.0000000000035
 30
0.0
 11
-24.77953599656098
 21
145.0000000000035
 31
0.0
  0
ARC
  5
88
330
2
100
AcDbEntity
  8
ANCON-CHANNEL
100
AcDbCircle
 10
-16.00000000000068
 20
144.7250000000039
 30
0.0
 40
3.0
100
AcDbArc
 50
120.0055946682716
 51
180.0
  0
LINE
  5
89
330
2
100
AcDbEntity
  8
ANCON-CHANNEL
100
AcDbLine
 10
-18.12726019059187
 20
145.0000000000035
 30
0.0
 11
-18.98244518579281
 21
145.0000000000035
 31
0.0
  0
ARC
  5
8A
330
2
100
AcDbEntity
  8
ANCON-CHANNEL
100
AcDbCircle
 10
-16.00000000000068
 20
144.7250000000039
 30
0.0
 40
0.5
100
AcDbArc
 50
120.0055946682716
 51
180.0
  0
LINE
  5
8B
330
2
100
AcDbEntity
  8
ANCON-CHANNEL
100
AcDbLine
 10
-16.44115680106984
 20
145.0000000000035
 30
0.0
 11
-17.53296911004668
 21
145.0000000000035
 31
0.0
  0
LINE
  5
8C
330
2
100
AcDbEntity
  8
ANCON-CHANNEL
100
AcDbLine
 10
-13.50000000000068
 20
145.0000000000035
 30
0.0
 11
-16.44115680106984
 21
145.0000000000035
 31
0.0
  0
ARC
  5
8D
330
2
100
AcDbEntity
  8
ANCON-CHANNEL
100
AcDbCircle
 10
-4.000000000000682
 20
150.5000000000035
 30
0.0
 40
4.0
100
AcDbArc
 50
0.0
 51
120.0055946682716
  0
ARC
  5
8F
330
2
100
AcDbEntity
  8
ANCON-CHANNEL
100
AcDbCircle
 10
-4.000000000000682
 20
129.5000000000035
 30
0.0
 40
4.0
100
AcDbArc
 50
239.9944053317283
 51
0.0
  0
LINE
  5
90
330
2
100
AcDbEntity
  8
ANCON-CHANNEL
100
AcDbLine
 10
-2.500000000000682
 20
132.7900000000035
 30
0.0
 11
-2.500000000000682
 21
129.5000000000035
 31
0.0
  0
LINE
  5
91
330
2
100
AcDbEntity
  8
ANCON-CHANNEL
100
AcDbLine
 10
-0.0000000000006821
 20
132.7900000000035
 30
0.0
 11
-0.0000000000006821
 21
129.5000000000035
 31
0.0
  0
LINE
  5
92
330
2
100
AcDbEntity
  8
ANCON-CHANNEL
100
AcDbLine
 10
-2.500000000000682
 20
132.7900000000035
 30
0.0
 11
-0.0000000000006821
 21
132.7900000000035
 31
0.0
  0
ARC
  5
93
330
2
100
AcDbEntity
  8
ANCON-CHANNEL
100
AcDbCircle
 10
-4.000000000000682
 20
129.5000000000035
 30
0.0
 40
1.5
100
AcDbArc
 50
239.9944053317283
 51
0.0
  0
LINE
  5
94
330
2
100
AcDbEntity
  8
ANCON-CHANNEL
100
AcDbLine
 10
-0.0000000000006821
 20
150.5000000000035
 30
0.0
 11
-0.0000000000006821
 21
147.2100000000036
 31
0.0
  0
LINE
  5
95
330
2
100
AcDbEntity
  8
ANCON-CHANNEL
100
AcDbLine
 10
-2.500000000000682
 20
150.5000000000035
 30
0.0
 11
-2.500000000000682
 21
147.2100000000036
 31
0.0
  0
LINE
  5
96
330
2
100
AcDbEntity
  8
ANCON-CHANNEL
100
AcDbLine
 10
-2.500000000000682
 20
147.2100000000036
 30
0.0
 11
-0.0000000000006821
 21
147.2100000000036
 31
0.0
  0
ARC
  5
97
330
2
100
AcDbEntity
  8
ANCON-CHANNEL
100
AcDbCircle
 10
-4.000000000000682
 20
150.5000000000035
 30
0.0
 40
1.5
100
AcDbArc
 50
0.0
 51
120.0055946682716
  0
LINE
  5
9A
330
2
100
AcDbEntity
  8
ANCON-CHANNEL
100
AcDbLine
 10
-18.0
 20
344.9999999999989
 30
0.0
 11
-18.0
 21
244.9999999999989
 31
0.0
  0
LINE
  5
9B
330
2
100
AcDbEntity
  8
ANCON-CHANNEL
100
AcDbLine
 10
0.0
 20
344.9999999999989
 30
0.0
 11
0.0
 21
244.9999999999989
 31
0.0
  0
LINE
  5
9C
330
2
100
AcDbEntity
  8
ANCON-CHANNEL
100
AcDbLine
 10
-11.0
 20
344.9999999999989
 30
0.0
 11
-11.0
 21
244.9999999999989
 31
0.0
  0
LINE
  5
9D
330
2
100
AcDbEntity
  8
ANCON-CHANNEL
100
AcDbLine
 10
0.0
 20
244.9999999999989
 30
0.0
 11
-18.0
 21
244.9999999999989
 31
0.0
  0
LINE
  5
9E
330
2
100
AcDbEntity
  8
ANCON-MASONRY
100
AcDbLine
 10
100.0
 20
224.9999999999989
 30
0.0
 11
100.0
 21
289.9999999999989
 31
0.0
  0
LINE
  5
9F
330
2
100
AcDbEntity
  8
ANCON-TIE
100
AcDbLine
 10
75.0
 20
292.2499999999989
 30
0.0
 11
90.0
 21
296.2499999999989
 31
0.0
  0
LINE
  5
A1
330
2
100
AcDbEntity
  8
ANCON-TIE
100
AcDbLine
 10
75.0
 20
289.7499999999989
 30
0.0
 11
90.0
 21
293.7499999999989
 31
0.0
  0
LINE
  5
A2
330
2
100
AcDbEntity
  8
ANCON-TIE
100
AcDbLine
 10
60.0
 20
296.2499999999989
 30
0.0
 11
0.0
 21
296.2499999999989
 31
0.0
  0
LINE
  5
A3
330
2
100
AcDbEntity
  8
ANCON-TIE
100
AcDbLine
 10
60.0
 20
293.7499999999989
 30
0.0
 11
0.0
 21
293.7499999999989
 31
0.0
  0
LINE
  5
A4
330
2
100
AcDbEntity
  8
ANCON-TIE
100
AcDbLine
 10
60.0
 20
296.2499999999989
 30
0.0
 11
75.0
 21
292.2499999999989
 31
0.0
  0
LINE
  5
A5
330
2
100
AcDbEntity
  8
ANCON-TIE
100
AcDbLine
 10
60.0
 20
293.7499999999989
 30
0.0
 11
75.0
 21
289.7499999999989
 31
0.0
  0
LINE
  5
A6
330
2
100
AcDbEntity
  8
ANCON-TIE
100
AcDbLine
 10
165.0
 20
296.2499999999989
 30
0.0
 11
90.0
 21
296.2499999999989
 31
0.0
  0
LINE
  5
A7
330
2
100
AcDbEntity
  8
ANCON-TIE
100
AcDbLine
 10
165.0
 20
293.7499999999989
 30
0.0
 11
90.0
 21
293.7499999999989
 31
0.0
  0
LINE
  5
A8
330
2
100
AcDbEntity
  8
ANCON-TIE
100
AcDbLine
 10
165.0
 20
296.2499999999989
 30
0.0
 11
165.0
 21
293.7499999999989
 31
0.0
  0
LINE
  5
A9
330
2
100
AcDbEntity
  8
ANCON-CHANNEL
100
AcDbLine
 10
0.0
 20
344.9999999999989
 30
0.0
 11
-18.0
 21
344.9999999999989
 31
0.0
  0
LINE
  5
AA
330
2
100
AcDbEntity
  8
ANCON-MASONRY
100
AcDbLine
 10
100.0
 20
299.9999999999989
 30
0.0
 11
100.0
 21
364.9999999999989
 31
0.0
  0
LINE
  5
AB
330
2
100
AcDbEntity
  8
ANCON-MASONRY
100
AcDbLine
 10
202.5
 20
149.9999999999988
 30
0.0
 11
202.5
 21
214.9999999999989
 31
0.0
  0
LINE
  5
AE
330
2
100
AcDbEntity
  8
ANCON-MASONRY
100
AcDbLine
 10
202.5
 20
-75.00000000000113
 30
0.0
 11
202.5
 21
-10.00000000000113
 31
0.0
  0
LINE
  5
AF
330
2
100
AcDbEntity
  8
ANCON-MASONRY
100
AcDbLine
 10
202.5
 20
74.99999999999886
 30
0.0
 11
202.5
 21
139.9999999999988
 31
0.0
  0
LINE
  5
B2
330
2
100
AcDbEntity
  8
ANCON-MASONRY
100
AcDbLine
 10
202.5
 20
-0.0000000000011369
 30
0.0
 11
202.5
 21
64.99999999999886
 31
0.0
  0
LINE
  5
B3
330
2
100
AcDbEntity
  8
ANCON-MASONRY
100
AcDbLine
 10
177.5
 20
-0.0000000000011369
 30
0.0
 11
177.5
 21
14.99999999999886
 31
0.0
  0
LINE
  5
B5
330
2
100
AcDbEntity
  8
ANCON-MASONRY
100
AcDbLine
 10
177.5
 20
-0.0000000000011369
 30
0.0
 11
202.5
 21
-0.0000000000011369
 31
0.0
  0
LINE
  5
B6
330
2
100
AcDbEntity
  8
ANCON-MASONRY
100
AcDbLine
 10
202.5
 20
224.9999999999989
 30
0.0
 11
202.5
 21
289.9999999999989
 31
0.0
  0
LINE
  5
B7
330
2
100
AcDbEntity
  8
ANCON-MASONRY
100
AcDbLine
 10
202.5
 20
299.9999999999989
 30
0.0
 11
202.5
 21
364.9999999999989
 31
0.0
  0
ARC
  5
145
330
2
100
AcDbEntity
  8
ANCON-SUPPORT
100
AcDbCircle
 10
24.0
 20
161.0000000000036
 30
0.0
 40
16.0
100
AcDbArc
 50
0.0
 51
90.0
  0
LINE
  5
146
330
2
100
AcDbEntity
  8
ANCON-SUPPORT
100
AcDbLine
 10
24.0
 20
177.0000000000036
 30
0.0
 11
0.0
 21
177.0
 31
0.0
  0
LINE
  5
147
330
2
100
AcDbEntity
  8
ANCON-SUPPORT
100
AcDbLine
 10
4.0
 20
177.0
 30
0.0
 11
4.0
 21
0.0
 31
0.0
  0
LINE
  5
148
330
2
100
AcDbEntity
  8
ANCON-SUPPORT
100
AcDbLine
 10
0.0
 20
177.0
 30
0.0
 11
0.0
 21
0.0
 31
0.0
  0
LINE
  5
149
330
2
100
AcDbEntity
  8
ANCON-SUPPORT
100
AcDbLine
 10
0.0
 20
0.0
 30
0.0
 11
80.44930399999998
 21
0.0
 31
0.0
  0
LINE
  5
14A
330
2
100
AcDbEntity
  8
ANCON-SUPPORT
100
AcDbLine
 10
40.0
 20
161.0000000000036
 30
0.0
 11
40.0
 21
122.9900164684104
 31
0.0
  0
MTEXT
  5
1B0
330
2
100
AcDbEntity
  8
ANCON-TEXT
100
AcDbMText
 10
310.4980702292569
 20
160.8307684361282
 30
0.0
 40
9.0
 41
251.4633422371162
 71
     1
 72
     5
  3
AnconOptima support system.\P\PStandard masonry support system with interchangeable, slide on brackets to suit cavities from 60 to 160mm .  Standard systems available from stock to suit a maximum load of 10, 12 and 14 kN with higher load systems avai
  1
lable upon request.\P\PThe system shown is fixed to concrete using Ancon 30/20 cast in channel.  Alternatively, expansion bolts are available as well as fixings for steel beams and RHS.
  7
ROMANS
 73
     1
 44
1.0
  0
LINE
  5
23D
330
2
100
AcDbEntity
  8
ANCON-SUPPORT
100
AcDbLine
 10
93.05436608583386
 20
4.000000000000227
 30
0.0
 11
167.0543660858338
 21
4.000000000000227
 31
0.0
  0
LINE
  5
23E
330
2
100
AcDbEntity
  8
ANCON-SUPPORT
100
AcDbLine
 10
93.0543660858334
 20
0.0
 30
0.0
 11
167.0543660858338
 21
0.0
 31
0.0
  0
LINE
  5
240
330
2
100
AcDbEntity
  8
ANCON-SUPPORT
100
AcDbLine
 10
167.0543660858338
 20
4.000000000000227
 30
0.0
 11
167.0543660858338
 21
-0.0000000000004547
 31
0.0
  0
LINE
  5
246
330
2
100
AcDbEntity
  8
ANCON-SUPPORT
100
AcDbLine
 10
71.46232032478065
 20
46.27137395039563
 30
0.0
 11
73.20543517973374
 21
26.34747998856096
 31
0.0
  0
LINE
  5
247
330
2
100
AcDbEntity
  8
ANCON-SUPPORT
100
AcDbLine
 10
67.47754153241385
 20
45.922750979405
 30
0.0
 11
69.22065638736694
 21
25.99885701757046
 31
0.0
  0
ARC
  5
249
330
2
100
AcDbEntity
  8
ANCON-SUPPORT
100
AcDbCircle
 10
93.0543660858334
 20
6.000000000000113
 30
0.0
 40
6.0
100
AcDbArc
 50
184.9999999999998
 51
270.0
  0
ARC
  5
24A
330
2
100
AcDbEntity
  8
ANCON-SUPPORT
100
AcDbCircle
 10
83.86462810263266
 20
19.24947983130369
 30
0.0
 40
6.0
100
AcDbArc
 50
4.999999999999796
 51
95.00000000002598
  0
ARC
  5
24B
330
2
100
AcDbEntity
  8
ANCON-SUPPORT
100
AcDbCircle
 10
75.19782457591737
 20
26.52179147405627
 30
0.0
 40
6.0
100
AcDbArc
 50
184.9999999999998
 51
275.0000000000259
  0
ARC
  5
24C
330
2
100
AcDbEntity
  8
ANCON-SUPPORT
100
AcDbCircle
 10
75.19782457591737
 20
26.52179147405627
 30
0.0
 40
2.0
100
AcDbArc
 50
184.9999999999998
 51
275.0000000000259
  0
LINE
  5
24D
330
2
100
AcDbEntity
  8
ANCON-SUPPORT
100
AcDbLine
 10
85.85701749881627
 20
19.42379131679877
 30
0.0
 11
87.07719789728344
 21
5.477065543514186
 31
0.0
  0
LINE
  5
24E
330
2
100
AcDbEntity
  8
ANCON-SUPPORT
100
AcDbLine
 10
89.84179629118353
 20
19.77241428778939
 30
0.0
 11
91.06197668965023
 21
5.825688514504918
 31
0.0
  0
ARC
  5
24F
330
2
100
AcDbEntity
  8
ANCON-SUPPORT
100
AcDbCircle
 10
93.0543660858334
 20
6.000000000000113
 30
0.0
 40
2.0
100
AcDbArc
 50
184.9999999999998
 51
270.0
  0
LINE
  5
250
330
2
100
AcDbEntity
  8
ANCON-SUPPORT
100
AcDbLine
 10
75.72075903240329
 20
20.54462328550562
 30
0.0
 11
83.69031661713734
 21
21.24186922748686
 31
0.0
  0
ARC
  5
251
330
2
100
AcDbEntity
  8
ANCON-SUPPORT
100
AcDbCircle
 10
83.86462810263266
 20
19.24947983130369
 30
0.0
 40
2.0
100
AcDbArc
 50
4.999999999999796
 51
95.00000000002598
  0
LINE
  5
252
330
2
100
AcDbEntity
  8
ANCON-SUPPORT
100
AcDbLine
 10
75.37213606141268
 20
24.52940207787219
 30
0.0
 11
83.34169364614671
 21
25.22664801985354
 31
0.0
  0
LINE
  5
253
330
2
100
AcDbEntity
  8
ANCON-SUPPORT
100
AcDbLine
 10
67.4775415324134
 20
45.922750979405
 30
0.0
 11
71.46232032478065
 21
46.27137395039563
 31
0.0
  0
LINE
  5
393
330
2
100
AcDbEntity
  8
0
 62
     1
100
AcDbLine
 10
-13.50000000000068
 20
140.0000000000035
 30
0.0
 11
22.93588381038921
 21
140.0000000000035
 31
0.0
  0
MTEXT
  5
421
330
2
100
AcDbEntity
  8
ANCON-TEXT
100
AcDbMText
 10
310.4980702292569
 20
365.0108512739819
 30
0.0
 40
9.0
 41
251.4633422371162
 71
     1
 72
     5
  1
Masonry support systems require restraint ties to be installed within 300mm above the support angle and at 450mm max horizontal centres.  \P\PTie shown is Ancon SD21 to Ancon 21/18 channel.
  7
ROMANS
 73
     1
 44
1.0
  0
MTEXT
  5
4F0
330
2
100
AcDbEntity
  8
ANCON-TEXT
100
AcDbMText
 10
-24.32973137788622
 20
-180.2738976948292
 30
0.0
 40
9.0
 41
479.7089269406155
 71
     1
 72
     5
  1
The support system shown is a typical detail.  Should you require a CAD file for a specific application please email details to our Technical Services department on tech@ancon.co.uk
  7
ROMANS
 73
     1
 44
1.0
1001
ACAD
1000
ACAD_MTEXT_DEFINED_HEIGHT_BEGIN
1070
    46
1040
81.28001728770437
1000
ACAD_MTEXT_DEFINED_HEIGHT_END
  0
LINE
  5
7C9
330
2
100
AcDbEntity
  8
ANCON-SUPPORT
100
AcDbLine
 10
80.44930399999998
 20
0.0
 30
0.0
 11
0.0
 21
0.0
 31
0.0
  0
ARC
  5
7CA
330
2
100
AcDbEntity
  8
ANCON-SUPPORT
100
AcDbCircle
 10
80.44930399999998
 20
5.0
 30
0.0
 40
5.0
100
AcDbArc
 50
270.0
 51
1.511662000002504
  0
ARC
  5
7CB
330
2
100
AcDbEntity
  8
ANCON-SUPPORT
100
AcDbCircle
 10
85.95012998218379
 20
6.885794677385989
 30
0.0
 40
1.0
100
AcDbArc
 50
273.9999909999988
 51
4.999999999999795
  0
LINE
  5
7CC
330
2
100
AcDbEntity
  8
ANCON-SUPPORT
100
AcDbLine
 10
86.94632498218373
 20
6.972950677385925
 30
0.0
 11
86.59932098218376
 21
10.93922367738592
 31
0.0
  0
ARC
  5
7CD
330
2
100
AcDbEntity
  8
ANCON-SUPPORT
100
AcDbCircle
 10
86.59192200000006
 20
27.56839600000001
 30
0.0
 40
0.5
100
AcDbArc
 50
168.4395369999976
 51
270.0
  0
ARC
  5
7CE
330
2
100
AcDbEntity
  8
ANCON-SUPPORT
100
AcDbCircle
 10
81.99874399999998
 20
27.56839600000001
 30
0.0
 40
0.5
100
AcDbArc
 50
270.0
 51
348.4395369999976
  0
LINE
  5
7CF
330
2
100
AcDbEntity
  8
ANCON-SUPPORT
100
AcDbLine
 10
77.03331699999989
 20
27.06839600000001
 30
0.0
 11
81.99874399999998
 21
27.06839600000001
 31
0.0
  0
ARC
  5
7D0
330
2
100
AcDbEntity
  8
ANCON-SUPPORT
100
AcDbCircle
 10
72.44674499999996
 20
44.29740500000002
 30
0.0
 40
0.25
100
AcDbArc
 50
281.5143210000028
 51
4.999999999999796
  0
ARC
  5
7D1
330
2
100
AcDbEntity
  8
ANCON-SUPPORT
100
AcDbCircle
 10
73.004864
 20
38.08730800000001
 30
0.0
 40
0.25
100
AcDbArc
 50
3.999999999996498
 51
89.16566399999746
  0
ARC
  5
7D2
330
2
100
AcDbEntity
  8
ANCON-SUPPORT
100
AcDbCircle
 10
72.69626100000005
 20
43.07256199999994
 30
0.0
 40
1.0
100
AcDbArc
 50
101.5143210000028
 51
185.0000050000001
  0
ARC
  5
7D3
330
2
100
AcDbEntity
  8
ANCON-SUPPORT
100
AcDbCircle
 10
73.02306599999997
 20
39.337175
 30
0.0
 40
1.0
100
AcDbArc
 50
185.0000050000001
 51
269.1656639999974
  0
LINE
  5
7D4
330
2
100
AcDbEntity
  8
ANCON-SUPPORT
100
AcDbLine
 10
72.02687100000003
 20
39.25001899999995
 30
0.0
 11
71.70006699999999
 21
42.98540600000001
 31
0.0
  0
ARC
  5
7D5
330
2
100
AcDbEntity
  8
ANCON-SUPPORT
100
AcDbCircle
 10
76.82404799999995
 20
30.06108800000004
 30
0.0
 40
3.0
100
AcDbArc
 50
184.000000000003
 51
274.000000000003
  0
LINE
  5
7D6
330
2
100
AcDbEntity
  8
ANCON-SUPPORT
100
AcDbLine
 10
73.25425500000005
 20
38.10474699999998
 30
0.0
 11
73.83135599999992
 21
29.85181899999998
 31
0.0
  0
LINE
  5
7D7
330
2
100
AcDbEntity
  8
ANCON-SUPPORT
100
AcDbLine
 10
67.56843400000002
 20
25.95739900000001
 30
0.0
 11
65.90475846131425
 21
44.97329396954194
 31
0.0
  0
LINE
  5
7D8
330
2
100
AcDbEntity
  8
ANCON-SUPPORT
100
AcDbLine
 10
72.69579399999997
 20
44.31919400000004
 30
0.0
 11
72.58741579593811
 21
45.55795072854983
 31
0.0
  0
ARC
  5
7D9
330
2
100
AcDbEntity
  8
ANCON-SUPPORT
100
AcDbCircle
 10
69.24608712862618
 20
45.26562234904588
 30
0.0
 40
3.354091999999999
100
AcDbArc
 50
4.999999999999796
 51
184.9999999999998
  0
LINE
  5
7DA
330
2
100
AcDbEntity
  8
ANCON-SUPPORT
100
AcDbLine
 10
83.59329699999989
 20
32.86877400000003
 30
0.0
 11
82.48859999999991
 21
27.46819500000004
 31
0.0
  0
LINE
  5
7DB
330
2
100
AcDbEntity
  8
ANCON-SUPPORT
100
AcDbLine
 10
83.59329699999989
 20
32.86877400000003
 30
0.0
 11
87.02229499999999
 21
32.16736700000002
 31
0.0
  0
LINE
  5
7DC
330
2
100
AcDbEntity
  8
ANCON-SUPPORT
100
AcDbLine
 10
87.02229499999999
 20
32.16736700000002
 30
0.0
 11
86.10206500000003
 21
27.66859699999998
 31
0.0
  0
LINE
  5
7DD
330
2
100
AcDbEntity
  8
ANCON-SUPPORT
100
AcDbLine
 10
86.59192200000006
 20
27.06839600000001
 30
0.0
 11
89.0
 21
27.06839600000001
 31
0.0
  0
LINE
  5
7DE
330
2
100
AcDbEntity
  8
ANCON-SUPPORT
100
AcDbLine
 10
85.43519900000001
 20
5.600459
 30
0.0
 11
85.44756400000006
 21
5.131901999999968
 31
0.0
  0
LINE
  5
7DF
330
2
100
AcDbEntity
  8
ANCON-SUPPORT
100
AcDbLine
 10
84.98178200000007
 20
12.08462399999996
 30
0.0
 11
84.72007499999994
 21
15.82721400000002
 31
0.0
  0
ARC
  5
7E0
330
2
100
AcDbEntity
  8
ANCON-SUPPORT
100
AcDbCircle
 10
79.73225400000001
 20
15.478432
 30
0.0
 40
5.0
100
AcDbArc
 50
3.999999999996498
 51
94.00000000000302
  0
LINE
  5
7E1
330
2
100
AcDbEntity
  8
ANCON-SUPPORT
100
AcDbLine
 10
85.66715099999987
 20
5.867289000000027
 30
0.0
 11
86.0198862992309
 21
5.888230616168854
 31
0.0
  0
LINE
  5
7E2
330
2
100
AcDbEntity
  8
ANCON-SUPPORT
100
AcDbLine
 10
85.24861200000009
 20
11.85267199999998
 30
0.0
 11
85.53188150843954
 21
11.86875572764573
 31
0.0
  0
ARC
  5
7E3
330
2
100
AcDbEntity
  8
ANCON-SUPPORT
100
AcDbCircle
 10
85.60163798218372
 20
10.87119167738591
 30
0.0
 40
1.0
100
AcDbArc
 50
3.900963999995194
 51
94.00000000000302
  0
ARC
  5
7E4
330
2
100
AcDbEntity
  8
ANCON-SUPPORT
100
AcDbCircle
 10
89.0
 20
28.06839600000001
 30
0.0
 40
1.0
100
AcDbArc
 50
270.0
 51
0.0
  0
ARC
  5
7E5
330
2
100
AcDbEntity
  8
ANCON-SUPPORT
100
AcDbCircle
 10
85.2311729999999
 20
12.10206299999993
 30
0.0
 40
0.25
100
AcDbArc
 50
184.000000000003
 51
274.000000000003
  0
ARC
  5
7E6
330
2
100
AcDbEntity
  8
ANCON-SUPPORT
100
AcDbCircle
 10
85.68459000000007
 20
5.617897999999968
 30
0.0
 40
0.25
100
AcDbArc
 50
94.00000000000302
 51
184.000000000003
  0
LINE
  5
7E7
330
2
100
AcDbEntity
  8
ANCON-SUPPORT
100
AcDbLine
 10
90.0
 20
52.67955563077032
 30
0.0
 11
90.0
 21
28.06839600000001
 31
0.0
  0
LINE
  5
7E8
330
2
100
AcDbEntity
  8
ANCON-SUPPORT
100
AcDbLine
 10
79.38347199999999
 20
20.46625200000006
 30
0.0
 11
74.61021099999993
 21
20.04864599999996
 31
0.0
  0
ARC
  5
7E9
330
2
100
AcDbEntity
  8
ANCON-SUPPORT
100
AcDbCircle
 10
74.04369900000006
 20
26.523912
 30
0.0
 40
6.5
100
AcDbArc
 50
185.0000010000024
 51
274.9999999999997
  0
LINE
  5
7EA
330
2
100
AcDbEntity
  8
ANCON-SUPPORT
100
AcDbLine
 10
40.0
 20
122.9900164684104
 30
0.0
 11
88.01390390054235
 21
58.66097220821018
 31
0.0
  0
ARC
  5
7EB
330
2
100
AcDbEntity
  8
ANCON-SUPPORT
100
AcDbCircle
 10
80.0
 20
52.67955563077044
 30
0.0
 40
10.0
100
AcDbArc
 50
0.0
 51
36.73691930273625
  0
LINE
  5
955
330
2
100
AcDbEntity
  8
ANCON-SUPPORT
100
AcDbLine
 10
83.67122817497074
 20
32.75076242394592
 30
0.0
 11
86.90428343588633
 21
32.0894358231742
 31
0.0
  0
LINE
  5
957
330
2
100
AcDbEntity
  8
ANCON-SUPPORT
100
AcDbLine
 10
83.67122817497074
 20
32.75076242394592
 30
0.0
 11
82.24267519655326
 21
25.7669349892475
 31
0.0
  0
LINE
  5
958
330
2
100
AcDbEntity
  8
ANCON-SUPPORT
100
AcDbLine
 10
86.90428343588633
 20
32.0894358231742
 30
0.0
 11
85.47573126021672
 21
25.10560822427242
 31
0.0
  0
LINE
  5
959
330
2
100
AcDbEntity
  8
ANCON-SUPPORT
100
AcDbLine
 10
82.24267519655326
 20
25.7669349892475
 30
0.0
 11
85.47573126021672
 21
25.10560822427242
 31
0.0
  0
ENDSEC
  0
SECTION
  2
OBJECTS
  0
DICTIONARY
  5
9
330
0
100
AcDbDictionary
281
     1
  3
ACAD_COLOR
350
CF
  3
ACAD_GROUP
350
25
  3
ACAD_LAYOUT
350
D
  3
ACAD_MATERIAL
350
BA
  3
ACAD_MLINESTYLE
350
26
  3
ACAD_PLOTSETTINGS
350
27
  3
ACAD_PLOTSTYLENAME
350
8
  3
ACAD_TABLESTYLE
350
D0
  3
ACAD_VISUALSTYLE
350
BE
  3
AcDbVariableDictionary
350
1B1
  0
DICTIONARY
  5
4A8
330
1D
100
AcDbDictionary
280
     1
281
     1
  0
DICTIONARY
  5
113
330
14
100
AcDbDictionary
280
     1
281
     1
  3
ACAD_LAYERSTATES
360
114
  0
DICTIONARY
  5
3
330
2
100
AcDbDictionary
280
     1
281
     1
  3
ACAD_LAYOUTSELFREF
360
4
  3
ACAD_SORTENTS
360
956
  0
DICTIONARY
  5
F
330
E
100
AcDbDictionary
280
     1
281
     1
  3
ACAD_LAYOUTSELFREF
360
10
  0
DICTIONARY
  5
CF
102
{ACAD_REACTORS
330
9
102
}
330
9
100
AcDbDictionary
281
     1
  0
DICTIONARY
  5
25
102
{ACAD_REACTORS
330
9
102
}
330
9
100
AcDbDictionary
281
     1
  0
DICTIONARY
  5
D
102
{ACAD_REACTORS
330
9
102
}
330
9
100
AcDbDictionary
281
     1
  3
Layout1
350
13
  3
Model
350
C
  0
DICTIONARY
  5
BA
102
{ACAD_REACTORS
330
9
102
}
330
9
100
AcDbDictionary
281
     1
  3
ByBlock
350
BC
  3
ByLayer
350
BB
  3
Global
350
BD
  0
DICTIONARY
  5
26
102
{ACAD_REACTORS
330
9
102
}
330
9
100
AcDbDictionary
281
     1
  3
STANDARD
350
28
  0
DICTIONARY
  5
27
102
{ACAD_REACTORS
330
9
102
}
330
9
100
AcDbDictionary
281
     1
  0
ACDBDICTIONARYWDFLT
  5
8
102
{ACAD_REACTORS
330
9
102
}
330
9
100
AcDbDictionary
281
     1
  3
Normal
350
7
100
AcDbDictionaryWithDefault
340
7
  0
DICTIONARY
  5
D0
102
{ACAD_REACTORS
330
9
102
}
330
9
100
AcDbDictionary
281
     1
  3
Standard
350
D1
  0
DICTIONARY
  5
BE
102
{ACAD_REACTORS
330
9
102
}
330
9
100
AcDbDictionary
281
     1
  3
2dWireframe
350
C4
  3
3D Hidden
350
93E
  3
3dWireframe
350
93D
  3
Basic
350
C3
  3
Brighten
350
CA
  3
ColorChange
350
CE
  3
Conceptual
350
93F
  3
Dim
350
C9
  3
Facepattern
350
CD
  3
Flat
350
BF
  3
FlatWithEdges
350
C0
  3
Gouraud
350
C1
  3
GouraudWithEdges
350
C2
  3
Linepattern
350
CC
  3
Realistic
350
940
  3
Thicken
350
CB
  0
DICTIONARY
  5
1B1
102
{ACAD_REACTORS
330
9
102
}
330
9
100
AcDbDictionary
281
     1
  3
CTABLESTYLE
350
1B2
  0
DICTIONARY
  5
114
102
{ACAD_REACTORS
330
113
102
}
330
113
100
AcDbDictionary
281
     1
  0
XRECORD
  5
4
102
{ACAD_REACTORS
330
3
102
}
330
3
100
AcDbXrecord
280
     1
340
2
  0
SORTENTSTABLE
  5
956
102
{ACAD_REACTORS
330
3
102
}
330
3
100
AcDbSortentsTable
330
2
331
7D9
  5
7D9
331
7EA
  5
957
331
9E
  5
9E
331
86
  5
86
331
AF
  5
AF
331
75
  5
75
331
7D7
  5
7D7
331
7E8
  5
7EB
331
9C
  5
9C
331
84
  5
84
331
73
  5
73
331
39
  5
39
331
7D5
  5
7D5
331
7E6
  5
7E9
331
252
  5
252
331
9A
  5
9A
331
82
  5
82
331
AB
  5
AB
331
71
  5
71
331
37
  5
37
331
7D3
  5
7D3
331
421
  5
421
331
7E4
  5
7E7
331
250
  5
250
331
80
  5
80
331
A9
  5
A9
331
6F
  5
6F
331
35
  5
35
331
7D1
  5
7D1
331
7E2
  5
7E5
331
4F0
  5
4F0
331
24E
  5
24E
331
96
  5
96
331
7E
  5
7E
331
A7
  5
A7
331
8F
  5
8F
331
6D
  5
6D
331
33
  5
33
331
7E0
  5
7E3
331
24C
  5
24C
331
B6
  5
B6
331
94
  5
94
331
7C
  5
7C
331
7CF
  5
7CF
331
149
  5
149
331
A5
  5
A5
331
8D
  5
8D
331
6B
  5
6B
331
31
  5
31
331
7DE
  5
7E1
331
24A
  5
24A
331
1B0
  5
1B0
331
92
  5
92
331
7A
  5
7A
331
7CD
  5
7CD
331
393
  5
393
331
147
  5
147
331
A3
  5
A3
331
8B
  5
8B
331
69
  5
69
331
2F
  5
2F
331
7DC
  5
7DE
331
B2
  5
B2
331
90
  5
90
331
78
  5
78
331
7CB
  5
7CB
331
145
  5
145
331
A1
  5
A1
331
89
  5
89
331
67
  5
67
331
3E
  5
3E
331
7DA
  5
7DA
331
246
  5
246
331
7EB
  5
958
331
7C9
  5
7C9
331
23D
  5
23D
331
9F
  5
9F
331
87
  5
87
331
957
  5
7DB
331
76
  5
76
331
65
  5
65
331
7D8
  5
7D8
331
7E9
  5
955
331
9D
  5
9D
331
85
  5
85
331
955
  5
7DD
331
AE
  5
AE
331
74
  5
74
331
3A
  5
3A
331
7D6
  5
7D6
331
7E7
  5
7EA
331
253
  5
253
331
9B
  5
9B
331
83
  5
83
331
72
  5
72
331
7D4
  5
7D4
331
240
  5
240
331
7E5
  5
7E8
331
251
  5
251
331
81
  5
81
331
AA
  5
AA
331
70
  5
70
331
36
  5
36
331
7D2
  5
7D2
331
7E3
  5
7E6
331
24F
  5
24F
331
97
  5
97
331
7F
  5
7F
331
45
  5
45
331
A8
  5
A8
331
6E
  5
6E
331
34
  5
34
331
7D0
  5
7D0
331
7E1
  5
7E4
331
24D
  5
24D
331
B7
  5
B7
331
95
  5
95
331
7D
  5
7D
331
14A
  5
14A
331
A6
  5
A6
331
6C
  5
6C
331
32
  5
32
331
7DF
  5
7E2
331
24B
  5
24B
331
B5
  5
B5
331
93
  5
93
331
7B
  5
7B
331
7CE
  5
7CE
331
148
  5
148
331
A4
  5
A4
331
8C
  5
8C
331
6A
  5
6A
331
30
  5
30
331
7DD
  5
7E0
331
249
  5
249
331
B3
  5
B3
331
91
  5
91
331
79
  5
79
331
7CC
  5
7CC
331
146
  5
146
331
A2
  5
A2
331
8A
  5
8A
331
68
  5
68
331
2E
  5
2E
331
958
  5
7DF
331
7DB
  5
7DC
331
247
  5
247
331
7CA
  5
7CA
331
23E
  5
23E
331
88
  5
88
331
77
  5
77
331
2C
  5
2C
  0
XRECORD
  5
10
102
{ACAD_REACTORS
330
F
102
}
330
F
100
AcDbXrecord
280
     1
340
E
  0
LAYOUT
  5
13
102
{ACAD_REACTORS
330
D
102
}
330
D
100
AcDbPlotSettings
  1

  2
Ancon 1
  4
A3
  6

 40
3.174999952316281
 41
3.174999952316281
 42
3.17498779296875
 43
3.17498779296875
 44
297.0
 45
420.2000122070312
 46
3.31
 47
0.0
 48
0.0
 49
0.0
140
0.0
141
0.0
142
1.0
143
0.9719112114267602
 70
   692
 72
     1
 73
     1
 74
     1
  7
Ancon pen settings.ctb
 75
     0
147
1.028900570590193
 76
     0
 77
     2
 78
   300
148
0.0127002310244961
149
0.0019061479295033
100
AcDbLayout
  1
Layout1
 70
     0
 71
     1
 10
-3.098506463153928
 20
-6.304750307687704
 11
405.2985964425213
 21
282.35287948606
 12
0.0
 22
0.0
 32
0.0
 14
1.000000000000000E+20
 24
1.000000000000000E+20
 34
1.000000000000000E+20
 15
-1.000000000000000E+20
 25
-1.000000000000000E+20
 35
-1.000000000000000E+20
146
0.0
 13
0.0
 23
0.0
 33
0.0
 16
1.0
 26
0.0
 36
0.0
 17
0.0
 27
1.0
 37
0.0
 76
     0
330
E
  0
LAYOUT
  5
C
102
{ACAD_REACTORS
330
D
102
}
330
D
100
AcDbPlotSettings
  1

  2
\\squirrel\Canon OFU
  4
A4
  6

 40
6.805083274841308
 41
5.619737148284912
 42
6.974411010742187
 43
5.027069091796875
 44
209.9733276367187
 45
296.9259948730469
 46
0.0
 47
0.0
 48
0.0
 49
0.0
140
0.0
141
0.0
142
1.0
143
4.026836545277169
 70
 11952
 72
     1
 73
     1
 74
     0
  7
Ancon pen settings.ctb
 75
     0
147
0.2483338940521037
 76
     0
 77
     2
 78
   300
148
311.0839755519928
149
269.539334597662
100
AcDbLayout
  1
Model
 70
     1
 71
     0
 10
0.0
 20
0.0
 11
12.0
 21
9.0
 12
0.0
 22
0.0
 32
0.0
 14
0.0
 24
0.0
 34
0.0
 15
0.0
 25
0.0
 35
0.0
146
0.0
 13
0.0
 23
0.0
 33
0.0
 16
1.0
 26
0.0
 36
0.0
 17
0.0
 27
1.0
 37
0.0
 76
     0
330
2
331
1E
1001
ACAD_PSEXT
1000
\\squirrel\Canon OFU
1000
Canon iR3570/iR4570 PCL5e
1000
\\squirrel
1000

1070
     0
  0
MATERIAL
  5
BC
102
{ACAD_XDICTIONARY
360
98A
102
}
102
{ACAD_REACTORS
330
BA
102
}
330
BA
100
AcDbMaterial
  1
ByBlock
  0
MATERIAL
  5
BB
102
{ACAD_XDICTIONARY
360
988
102
}
102
{ACAD_REACTORS
330
BA
102
}
330
BA
100
AcDbMaterial
  1
ByLayer
  0
MATERIAL
  5
BD
102
{ACAD_XDICTIONARY
360
98C
102
}
102
{ACAD_REACTORS
330
BA
102
}
330
BA
100
AcDbMaterial
  1
Global
  0
MLINESTYLE
  5
28
102
{ACAD_REACTORS
330
26
102
}
330
26
100
AcDbMlineStyle
  2
STANDARD
 70
     0
  3

 62
   256
 51
90.0
 52
90.0
 71
     2
 49
0.5
 62
   256
  6
BYLAYER
 49
-0.5
 62
   256
  6
BYLAYER
  0
ACDBPLACEHOLDER
  5
7
102
{ACAD_REACTORS
330
8
102
}
330
8
  0
TABLESTYLE
  5
D1
102
{ACAD_XDICTIONARY
360
98E
102
}
102
{ACAD_REACTORS
330
D0
102
}
330
D0
100
AcDbTableStyle
  3
Standard
 70
     0
 71
     0
 40
0.06
 41
0.06
280
     0
281
     0
  7
STANDARD
140
0.18
170
     2
 62
     0
 63
     7
283
     0
274
    -2
284
     1
 64
     0
275
    -2
285
     1
 65
     0
276
    -2
286
     1
 66
     0
277
    -2
287
     1
 67
     0
278
    -2
288
     1
 68
     0
279
    -2
289
     1
 69
     0
  7
STANDARD
140
0.25
170
     5
 62
     0
 63
     7
283
     0
274
    -2
284
     1
 64
     0
275
    -2
285
     1
 65
     0
276
    -2
286
     1
 66
     0
277
    -2
287
     1
 67
     0
278
    -2
288
     1
 68
     0
279
    -2
289
     1
 69
     0
  7
STANDARD
140
0.18
170
     5
 62
     0
 63
     7
283
     0
274
    -2
284
     1
 64
     0
275
    -2
285
     1
 65
     0
276
    -2
286
     1
 66
     0
277
    -2
287
     1
 67
     0
278
    -2
288
     1
 68
     0
279
    -2
289
     1
 69
     0
  0
VISUALSTYLE
  5
C4
102
{ACAD_REACTORS
330
BE
102
}
330
BE
100
AcDbVisualStyle
  2
2dWireframe
 70
     4
 71
     0
 72
     2
 73
     0
 90
        0
 40
-0.6
 41
-30.0
 62
     5
 63
     7
421
 16777215
 74
     1
 91
        4
 64
     7
 65
   257
 75
     1
175
     1
 42
1.0
 92
        0
 66
   257
 43
1.0
 76
     1
 77
     6
 78
     2
 67
     7
 79
     5
170
     0
171
     0
290
     0
174
     0
 93
        1
 44
0.0
173
     0
291
     0
 45
0.0
1001
ACAD
1000
AcDbSavedByObjectVersion
1070
     0
  0
VISUALSTYLE
  5
93E
102
{ACAD_REACTORS
330
BE
102
}
330
BE
100
AcDbVisualStyle
  2
3D Hidden
 70
     6
 71
     1
 72
     2
 73
     2
 90
        0
 40
-0.6
 41
-30.0
 62
     5
 63
     7
421
 16777215
 74
     2
 91
        2
 64
     7
 65
   257
 75
     2
175
     1
 42
40.0
 92
        0
 66
   257
 43
1.0
 76
     1
 77
     6
 78
     2
 67
     7
 79
     3
170
     0
171
     0
290
     0
174
     0
 93
        1
 44
0.0
173
     0
291
     0
 45
0.0
1001
ACAD
1000
AcDbSavedByObjectVersion
1070
     0
  0
VISUALSTYLE
  5
93D
102
{ACAD_REACTORS
330
BE
102
}
330
BE
100
AcDbVisualStyle
  2
3dWireframe
 70
     5
 71
     0
 72
     2
 73
     0
 90
        0
 40
-0.6
 41
-30.0
 62
     5
 63
     7
421
 16777215
 74
     1
 91
        4
 64
     7
 65
   257
 75
     1
175
     1
 42
1.0
 92
        0
 66
   257
 43
1.0
 76
     1
 77
     6
 78
     2
 67
     7
 79
     5
170
     0
171
     0
290
     0
174
     0
 93
        1
 44
0.0
173
     0
291
     0
 45
0.0
1001
ACAD
1000
AcDbSavedByObjectVersion
1070
     0
  0
VISUALSTYLE
  5
C3
102
{ACAD_REACTORS
330
BE
102
}
330
BE
100
AcDbVisualStyle
  2
Basic
 70
     7
 71
     1
 72
     0
 73
     1
 90
        0
 40
-0.6
 41
-30.0
 62
     5
 63
     7
421
 16777215
 74
     0
 91
        4
 64
     7
 65
   257
 75
     1
175
     1
 42
1.0
 92
        8
 66
     7
 43
1.0
 76
     1
 77
     6
 78
     2
 67
     7
 79
     5
170
     0
171
     0
290
     0
174
     0
 93
        1
 44
0.0
173
     0
291
     1
 45
0.0
1001
ACAD
1000
AcDbSavedByObjectVersion
1070
     0
  0
VISUALSTYLE
  5
CA
102
{ACAD_REACTORS
330
BE
102
}
330
BE
100
AcDbVisualStyle
  2
Brighten
 70
    12
 71
     2
 72
     2
 73
     0
 90
        0
 40
-0.6
 41
-30.0
 62
     5
 63
     7
421
 16777215
 74
     1
 91
        4
 64
     7
 65
   257
 75
     1
175
     1
 42
1.0
 92
        8
 66
     7
 43
1.0
 76
     1
 77
     6
 78
     2
 67
     7
 79
     5
170
     0
171
     0
290
     0
174
     0
 93
        1
 44
50.0
173
     0
291
     1
 45
0.0
1001
ACAD
1000
AcDbSavedByObjectVersion
1070
     0
  0
VISUALSTYLE
  5
CE
102
{ACAD_REACTORS
330
BE
102
}
330
BE
100
AcDbVisualStyle
  2
ColorChange
 70
    16
 71
     2
 72
     2
 73
     3
 90
        0
 40
-0.6
 41
-30.0
 62
     5
 63
     8
421
  8421504
 74
     1
 91
        4
 64
     7
 65
   257
 75
     1
175
     1
 42
1.0
 92
        8
 66
     8
424
  8421504
 43
1.0
 76
     1
 77
     6
 78
     2
 67
     7
 79
     5
170
     0
171
     0
290
     0
174
     0
 93
        1
 44
0.0
173
     0
291
     1
 45
0.0
1001
ACAD
1000
AcDbSavedByObjectVersion
1070
     0
  0
VISUALSTYLE
  5
93F
102
{ACAD_REACTORS
330
BE
102
}
330
BE
100
AcDbVisualStyle
  2
Conceptual
 70
     9
 71
     3
 72
     2
 73
     0
 90
        0
 40
-0.6
 41
-30.0
 62
     5
 63
     7
421
 16777215
 74
     2
 91
        2
 64
     7
 65
   257
 75
     1
175
     1
 42
40.0
 92
        8
 66
     7
 43
1.0
 76
     1
 77
     6
 78
     2
 67
     7
 79
     3
170
     0
171
     0
290
     0
174
     0
 93
        1
 44
0.0
173
     0
291
     0
 45
0.0
1001
ACAD
1000
AcDbSavedByObjectVersion
1070
     0
  0
VISUALSTYLE
  5
C9
102
{ACAD_REACTORS
330
BE
102
}
330
BE
100
AcDbVisualStyle
  2
Dim
 70
    11
 71
     2
 72
     2
 73
     0
 90
        0
 40
-0.6
 41
-30.0
 62
     5
 63
     7
421
 16777215
 74
     1
 91
        4
 64
     7
 65
   257
 75
     1
175
     1
 42
1.0
 92
        8
 66
     7
 43
1.0
 76
     1
 77
     6
 78
     2
 67
     7
 79
     5
170
     0
171
     0
290
     0
174
     0
 93
        1
 44
-50.0
173
     0
291
     1
 45
0.0
1001
ACAD
1000
AcDbSavedByObjectVersion
1070
     0
  0
VISUALSTYLE
  5
CD
102
{ACAD_REACTORS
330
BE
102
}
330
BE
100
AcDbVisualStyle
  2
Facepattern
 70
    15
 71
     2
 72
     2
 73
     0
 90
        0
 40
-0.6
 41
-30.0
 62
     5
 63
     7
421
 16777215
 74
     1
 91
        4
 64
     7
 65
   257
 75
     1
175
     1
 42
1.0
 92
        8
 66
     7
 43
1.0
 76
     1
 77
     6
 78
     2
 67
     7
 79
     5
170
     0
171
     0
290
     0
174
     0
 93
        1
 44
0.0
173
     0
291
     1
 45
0.0
1001
ACAD
1000
AcDbSavedByObjectVersion
1070
     0
  0
VISUALSTYLE
  5
BF
102
{ACAD_REACTORS
330
BE
102
}
330
BE
100
AcDbVisualStyle
  2
Flat
 70
     0
 71
     2
 72
     1
 73
     1
 90
        2
 40
-0.6
 41
30.0
 62
     5
 63
     7
421
 16777215
 74
     0
 91
        4
 64
     7
 65
   257
 75
     1
175
     1
 42
1.0
 92
        8
 66
     7
 43
1.0
 76
     1
 77
     6
 78
     2
 67
     7
 79
     5
170
     0
171
     0
290
     0
174
     0
 93
       13
 44
0.0
173
     0
291
     1
 45
0.0
1001
ACAD
1000
AcDbSavedByObjectVersion
1070
     0
  0
VISUALSTYLE
  5
C0
102
{ACAD_REACTORS
330
BE
102
}
330
BE
100
AcDbVisualStyle
  2
FlatWithEdges
 70
     1
 71
     2
 72
     1
 73
     1
 90
        2
 40
-0.6
 41
30.0
 62
     5
 63
     7
421
 16777215
 74
     1
 91
        4
 64
     7
 65
   257
 75
     1
175
     1
 42
1.0
 92
        0
 66
   257
 43
1.0
 76
     1
 77
     6
 78
     2
 67
     7
 79
     5
170
     0
171
     0
290
     0
174
     0
 93
       13
 44
0.0
173
     0
291
     1
 45
0.0
1001
ACAD
1000
AcDbSavedByObjectVersion
1070
     0
  0
VISUALSTYLE
  5
C1
102
{ACAD_REACTORS
330
BE
102
}
330
BE
100
AcDbVisualStyle
  2
Gouraud
 70
     2
 71
     2
 72
     2
 73
     1
 90
        2
 40
-0.6
 41
30.0
 62
     5
 63
     7
421
 16777215
 74
     0
 91
        4
 64
     7
 65
   257
 75
     1
175
     1
 42
1.0
 92
        0
 66
     7
 43
1.0
 76
     1
 77
     6
 78
     2
 67
     7
 79
     5
170
     0
171
     0
290
     0
174
     0
 93
       13
 44
0.0
173
     0
291
     1
 45
0.0
1001
ACAD
1000
AcDbSavedByObjectVersion
1070
     0
  0
VISUALSTYLE
  5
C2
102
{ACAD_REACTORS
330
BE
102
}
330
BE
100
AcDbVisualStyle
  2
GouraudWithEdges
 70
     3
 71
     2
 72
     2
 73
     1
 90
        2
 40
-0.6
 41
30.0
 62
     5
 63
     7
421
 16777215
 74
     1
 91
        4
 64
     7
 65
   257
 75
     1
175
     1
 42
1.0
 92
        0
 66
   257
 43
1.0
 76
     1
 77
     6
 78
     2
 67
     7
 79
     5
170
     0
171
     0
290
     0
174
     0
 93
       13
 44
0.0
173
     0
291
     1
 45
0.0
1001
ACAD
1000
AcDbSavedByObjectVersion
1070
     0
  0
VISUALSTYLE
  5
CC
102
{ACAD_REACTORS
330
BE
102
}
330
BE
100
AcDbVisualStyle
  2
Linepattern
 70
    14
 71
     2
 72
     2
 73
     0
 90
        0
 40
-0.6
 41
-30.0
 62
     5
 63
     7
421
 16777215
 74
     1
 91
        4
 64
     7
 65
   257
 75
     7
175
     7
 42
1.0
 92
        8
 66
     7
 43
1.0
 76
     1
 77
     6
 78
     2
 67
     7
 79
     5
170
     0
171
     0
290
     0
174
     0
 93
        1
 44
0.0
173
     0
291
     1
 45
0.0
1001
ACAD
1000
AcDbSavedByObjectVersion
1070
     0
  0
VISUALSTYLE
  5
940
102
{ACAD_REACTORS
330
BE
102
}
330
BE
100
AcDbVisualStyle
  2
Realistic
 70
     8
 71
     2
 72
     2
 73
     0
 90
        0
 40
-0.6
 41
-30.0
 62
     5
 63
     7
421
 16777215
 74
     1
 91
        0
 64
     7
 65
   257
 75
     1
175
     1
 42
1.0
 92
        8
 66
     8
424
  7895160
 43
1.0
 76
     1
 77
     6
 78
     2
 67
     7
 79
     5
170
     0
171
     0
290
     0
174
     0
 93
       13
 44
0.0
173
     0
291
     0
 45
0.0
1001
ACAD
1000
AcDbSavedByObjectVersion
1070
     0
  0
VISUALSTYLE
  5
CB
102
{ACAD_REACTORS
330
BE
102
}
330
BE
100
AcDbVisualStyle
  2
Thicken
 70
    13
 71
     2
 72
     2
 73
     0
 90
        0
 40
-0.6
 41
-30.0
 62
     5
 63
     7
421
 16777215
 74
     1
 91
        4
 64
     7
 65
   257
 75
     1
175
     1
 42
1.0
 92
       12
 66
     7
 43
1.0
 76
     1
 77
     6
 78
     2
 67
     7
 79
     5
170
     0
171
     0
290
     0
174
     0
 93
        1
 44
0.0
173
     0
291
     1
 45
0.0
1001
ACAD
1000
AcDbSavedByObjectVersion
1070
     0
  0
DICTIONARYVAR
  5
1B2
102
{ACAD_REACTORS
330
1B1
102
}
330
1B1
100
DictionaryVariables
280
     0
  1
STANDARD
  0
DICTIONARY
  5
98A
330
BC
100
AcDbDictionary
280
     1
281
     1
  3
ACAD_XREC_ROUNDTRIP
360
98B
  0
DICTIONARY
  5
988
330
BB
100
AcDbDictionary
280
     1
281
     1
  3
ACAD_XREC_ROUNDTRIP
360
989
  0
DICTIONARY
  5
98C
330
BD
100
AcDbDictionary
280
     1
281
     1
  3
ACAD_XREC_ROUNDTRIP
360
98D
  0
DICTIONARY
  5
98E
330
D1
100
AcDbDictionary
280
     1
281
     1
  3
ACAD_XREC_ROUNDTRIP
360
98F
  0
XRECORD
  5
98B
102
{ACAD_REACTORS
330
98A
102
}
330
98A
100
AcDbXrecord
280
     1
102
MATERIAL
148
0.0
149
0.0
149
0.0
 93
        0
 94
       63
282
     0
 72
     1
 77
     1
171
     1
175
     1
179
     1
273
     0
  0
XRECORD
  5
989
102
{ACAD_REACTORS
330
988
102
}
330
988
100
AcDbXrecord
280
     1
102
MATERIAL
148
0.0
149
0.0
149
0.0
 93
        0
 94
       63
282
     0
 72
     1
 77
     1
171
     1
175
     1
179
     1
273
     0
  0
XRECORD
  5
98D
102
{ACAD_REACTORS
330
98C
102
}
330
98C
100
AcDbXrecord
280
     1
102
MATERIAL
148
0.0
149
0.0
149
0.0
 93
        0
 94
       63
282
     0
 72
     1
 77
     1
171
     1
175
     1
179
     1
273
     0
  0
XRECORD
  5
98F
102
{ACAD_REACTORS
330
98E
102
}
330
98E
100
AcDbXrecord
280
     1
102
ACAD_ROUNDTRIP_PRE2007_TABLESTYLE
 90
      512
 91
        0
  1

 92
      512
 93
        0
  2

 94
      512
 95
        0
  3

  0
ENDSEC
  0
EOF
