  0
SECTION
  2
HEADER
  9
$ACADVER
  1
AC1015
  9
$ACADMAINTVER
 70
    10
  9
$DWGCODEPAGE
  3
ANSI_1252
  9
$INSBASE
 10
0.0
 20
75.0
 30
0.0
  9
$EXTMIN
 10
-191.2552761888535
 20
-65.01342670993586
 30
-0.0015258207003583
  9
$EXTMAX
 10
730.3959984665816
 20
375.0134287588455
 30
0.0000000349246037
  9
$LIMMIN
 10
0.0
 20
0.0
  9
$LIMMAX
 10
420.0
 20
297.0
  9
$ORTHOMODE
 70
     1
  9
$REGENMODE
 70
     1
  9
$FILLMODE
 70
     1
  9
$QTEXTMODE
 70
     0
  9
$MIRRTEXT
 70
     1
  9
$LTSCALE
 40
1.0
  9
$ATTMODE
 70
     1
  9
$TEXTSIZE
 40
9.0
  9
$TRACEWID
 40
10.0
  9
$TEXTSTYLE
  7
ROMANS
  9
$CLAYER
  8
ANCON-CHANNEL
  9
$CELTYPE
  6
BYLAYER
  9
$CECOLOR
 62
   256
  9
$CELTSCALE
 40
1.0
  9
$DISPSILH
 70
     0
  9
$DIMSCALE
 40
5.0
  9
$DIMASZ
 40
0.0
  9
$DIMEXO
 40
4.5
  9
$DIMDLI
 40
0.0
  9
$DIMRND
 40
1.0
  9
$DIMDLE
 40
1.25
  9
$DIMEXE
 40
1.5
  9
$DIMTP
 40
0.0
  9
$DIMTM
 40
0.0
  9
$DIMTXT
 40
1.8
  9
$DIMCEN
 40
0.0
  9
$DIMTSZ
 40
1.0
  9
$DIMTOL
 70
     0
  9
$DIMLIM
 70
     0
  9
$DIMTIH
 70
     0
  9
$DIMTOH
 70
     0
  9
$DIMSE1
 70
     0
  9
$DIMSE2
 70
     0
  9
$DIMTAD
 70
     1
  9
$DIMZIN
 70
    12
  9
$DIMBLK
  1

  9
$DIMASO
 70
     1
  9
$DIMSHO
 70
     0
  9
$DIMPOST
  1

  9
$DIMAPOST
  1

  9
$DIMALT
 70
     0
  9
$DIMALTD
 70
     2
  9
$DIMALTF
 40
0.04
  9
$DIMLFAC
 40
1.0
  9
$DIMTOFL
 70
     0
  9
$DIMTVP
 40
0.0
  9
$DIMTIX
 70
     0
  9
$DIMSOXD
 70
     0
  9
$DIMSAH
 70
     0
  9
$DIMBLK1
  1

  9
$DIMBLK2
  1

  9
$DIMSTYLE
  2
1-5
  9
$DIMCLRD
 70
     0
  9
$DIMCLRE
 70
     0
  9
$DIMCLRT
 70
     0
  9
$DIMTFAC
 40
1.25
  9
$DIMGAP
 40
0.1
  9
$DIMJUST
 70
     0
  9
$DIMSD1
 70
     0
  9
$DIMSD2
 70
     0
  9
$DIMTOLJ
 70
     1
  9
$DIMTZIN
 70
    12
  9
$DIMALTZ
 70
    12
  9
$DIMALTTZ
 70
    12
  9
$DIMUPT
 70
     0
  9
$DIMDEC
 70
     2
  9
$DIMTDEC
 70
     2
  9
$DIMALTU
 70
     2
  9
$DIMALTTD
 70
     2
  9
$DIMTXSTY
  7
ROMANS
  9
$DIMAUNIT
 70
     0
  9
$DIMADEC
 70
     0
  9
$DIMALTRND
 40
0.0
  9
$DIMAZIN
 70
     0
  9
$DIMDSEP
 70
    46
  9
$DIMATFIT
 70
     3
  9
$DIMFRAC
 70
     0
  9
$DIMLDRBLK
  1

  9
$DIMLUNIT
 70
     2
  9
$DIMLWD
 70
    -2
  9
$DIMLWE
 70
    -2
  9
$DIMTMOVE
 70
     2
  9
$LUNITS
 70
     2
  9
$LUPREC
 70
     2
  9
$SKETCHINC
 40
1.0
  9
$FILLETRAD
 40
0.0
  9
$AUNITS
 70
     0
  9
$AUPREC
 70
     4
  9
$MENU
  1
C:\ACADWIN\SUPPORT\ACAD
  9
$ELEVATION
 40
0.0
  9
$PELEVATION
 40
0.0
  9
$THICKNESS
 40
0.0
  9
$LIMCHECK
 70
     0
  9
$CHAMFERA
 40
0.0
  9
$CHAMFERB
 40
0.0
  9
$CHAMFERC
 40
0.0
  9
$CHAMFERD
 40
0.0
  9
$SKPOLY
 70
     0
  9
$TDCREATE
 40
2450429.655338657
  9
$TDUCREATE
 40
2450429.613671990
  9
$TDUPDATE
 40
2452487.869706366
  9
$TDUUPDATE
 40
2452487.828039699
  9
$TDINDWG
 40
0.1764057870
  9
$TDUSRTIMER
 40
0.1764057870
  9
$USRTIMER
 70
     1
  9
$ANGBASE
 50
0.0
  9
$ANGDIR
 70
     0
  9
$PDMODE
 70
     0
  9
$PDSIZE
 40
0.0
  9
$PLINEWID
 40
0.0
  9
$SPLFRAME
 70
     0
  9
$SPLINETYPE
 70
     6
  9
$SPLINESEGS
 70
     8
  9
$HANDSEED
  5
198
  9
$SURFTAB1
 70
    18
  9
$SURFTAB2
 70
    18
  9
$SURFTYPE
 70
     6
  9
$SURFU
 70
    18
  9
$SURFV
 70
    18
  9
$UCSBASE
  2

  9
$UCSNAME
  2

  9
$UCSORG
 10
0.0
 20
0.0
 30
0.0
  9
$UCSXDIR
 10
1.0
 20
0.0
 30
0.0
  9
$UCSYDIR
 10
0.0
 20
1.0
 30
0.0
  9
$UCSORTHOREF
  2

  9
$UCSORTHOVIEW
 70
     0
  9
$UCSORGTOP
 10
0.0
 20
0.0
 30
0.0
  9
$UCSORGBOTTOM
 10
0.0
 20
0.0
 30
0.0
  9
$UCSORGLEFT
 10
0.0
 20
0.0
 30
0.0
  9
$UCSORGRIGHT
 10
0.0
 20
0.0
 30
0.0
  9
$UCSORGFRONT
 10
0.0
 20
0.0
 30
0.0
  9
$UCSORGBACK
 10
0.0
 20
0.0
 30
0.0
  9
$PUCSBASE
  2

  9
$PUCSNAME
  2

  9
$PUCSORG
 10
0.0
 20
0.0
 30
0.0
  9
$PUCSXDIR
 10
1.0
 20
0.0
 30
0.0
  9
$PUCSYDIR
 10
0.0
 20
1.0
 30
0.0
  9
$PUCSORTHOREF
  2

  9
$PUCSORTHOVIEW
 70
     0
  9
$PUCSORGTOP
 10
0.0
 20
0.0
 30
0.0
  9
$PUCSORGBOTTOM
 10
0.0
 20
0.0
 30
0.0
  9
$PUCSORGLEFT
 10
0.0
 20
0.0
 30
0.0
  9
$PUCSORGRIGHT
 10
0.0
 20
0.0
 30
0.0
  9
$PUCSORGFRONT
 10
0.0
 20
0.0
 30
0.0
  9
$PUCSORGBACK
 10
0.0
 20
0.0
 30
0.0
  9
$USERI1
 70
     0
  9
$USERI2
 70
     0
  9
$USERI3
 70
     0
  9
$USERI4
 70
     0
  9
$USERI5
 70
     0
  9
$USERR1
 40
0.0
  9
$USERR2
 40
0.0
  9
$USERR3
 40
0.0
  9
$USERR4
 40
0.0
  9
$USERR5
 40
0.0
  9
$WORLDVIEW
 70
     1
  9
$SHADEDGE
 70
     3
  9
$SHADEDIF
 70
    70
  9
$TILEMODE
 70
     1
  9
$MAXACTVP
 70
    16
  9
$PINSBASE
 10
0.0
 20
0.0
 30
0.0
  9
$PLIMCHECK
 70
     0
  9
$PEXTMIN
 10
1.000000000000000E+20
 20
1.000000000000000E+20
 30
1.000000000000000E+20
  9
$PEXTMAX
 10
-1.000000000000000E+20
 20
-1.000000000000000E+20
 30
-1.000000000000000E+20
  9
$PLIMMIN
 10
0.0
 20
0.0
  9
$PLIMMAX
 10
420.0
 20
297.0
  9
$UNITMODE
 70
     0
  9
$VISRETAIN
 70
     0
  9
$PLINEGEN
 70
     0
  9
$PSLTSCALE
 70
     1
  9
$TREEDEPTH
 70
  3020
  9
$CMLSTYLE
  2
STANDARD
  9
$CMLJUST
 70
     0
  9
$CMLSCALE
 40
1.0
  9
$PROXYGRAPHICS
 70
     1
  9
$MEASUREMENT
 70
     0
  9
$CELWEIGHT
370
    -1
  9
$ENDCAPS
280
     0
  9
$JOINSTYLE
280
     0
  9
$LWDISPLAY
290
     0
  9
$INSUNITS
 70
     0
  9
$HYPERLINKBASE
  1

  9
$STYLESHEET
  1

  9
$XEDIT
290
     1
  9
$CEPSNTYPE
380
     0
  9
$PSTYLEMODE
290
     1
  9
$FINGERPRINTGUID
  2
{9E6D1AEF-A4BE-11D6-AAC6-0010A4A25215}
  9
$VERSIONGUID
  2
{9E6D1AF8-A4BE-11D6-AAC6-0010A4A25215}
  9
$EXTNAMES
290
     1
  9
$PSVPSCALE
 40
0.0
  9
$OLESTARTUP
290
     0
  0
ENDSEC
  0
SECTION
  2
CLASSES
  0
CLASS
  1
DICTIONARYVAR
  2
AcDbDictionaryVar
  3
AutoCAD 2000
 90
    32768
280
     0
281
     0
  0
CLASS
  1
LWPOLYLINE
  2
AcDbPolyline
  3
AutoCAD 2000
 90
    32768
280
     0
281
     1
  0
CLASS
  1
ACDBDICTIONARYWDFLT
  2
AcDbDictionaryWithDefault
  3
AutoCAD 2000
 90
        0
280
     0
281
     0
  0
CLASS
  1
ACDBPLACEHOLDER
  2
AcDbPlaceHolder
  3
AutoCAD 2000
 90
        0
280
     0
281
     0
  0
CLASS
  1
LAYOUT
  2
AcDbLayout
  3
AutoCAD 2000
 90
        0
280
     0
281
     0
  0
ENDSEC
  0
SECTION
  2
TABLES
  0
TABLE
  2
VPORT
  5
12
330
0
100
AcDbSymbolTable
 70
     3
  0
VPORT
  5
197
330
12
100
AcDbSymbolTableRecord
100
AcDbViewportTableRecord
  2
*Active
 70
     0
 10
0.0
 20
0.0
 11
1.0
 21
1.0
 12
269.5703611388641
 22
155.0000010244548
 13
0.0
 23
0.0
 14
5.0
 24
5.0
 15
10.0
 25
10.0
 16
0.0
 26
0.0
 36
1.0
 17
0.0
 27
0.0
 37
0.0
 40
526.6315837948915
 41
1.760948905109489
 42
50.0
 43
0.0
 44
0.0
 50
0.0
 51
0.0
 71
     0
 72
 20000
 73
     1
 74
     1
 75
     0
 76
     0
 77
     0
 78
     0
281
     0
 65
     1
110
0.0
120
0.0
130
0.0
111
1.0
121
0.0
131
0.0
112
0.0
122
1.0
132
0.0
 79
     0
146
0.0
  0
ENDTAB
  0
TABLE
  2
LTYPE
  5
D
330
0
100
AcDbSymbolTable
 70
     1
  0
LTYPE
  5
E
330
D
100
AcDbSymbolTableRecord
100
AcDbLinetypeTableRecord
  2
BYBLOCK
 70
     0
  3

 72
    65
 73
     0
 40
0.0
  0
LTYPE
  5
F
330
D
100
AcDbSymbolTableRecord
100
AcDbLinetypeTableRecord
  2
BYLAYER
 70
     0
  3

 72
    65
 73
     0
 40
0.0
  0
LTYPE
  5
5
330
D
100
AcDbSymbolTableRecord
100
AcDbLinetypeTableRecord
  2
CONTINUOUS
 70
     0
  3
Solid line
 72
    65
 73
     0
 40
0.0
  0
ENDTAB
  0
TABLE
  2
LAYER
  5
A
330
0
100
AcDbSymbolTable
 70
     9
  0
LAYER
  5
4
330
A
100
AcDbSymbolTableRecord
100
AcDbLayerTableRecord
  2
0
 70
     0
 62
     7
  6
CONTINUOUS
370
    -3
390
E4
  0
LAYER
  5
B1
330
A
100
AcDbSymbolTableRecord
100
AcDbLayerTableRecord
  2
ANCON-TIE
 70
     0
 62
     1
  6
CONTINUOUS
370
    -3
390
E4
  0
LAYER
  5
DD
330
A
100
AcDbSymbolTableRecord
100
AcDbLayerTableRecord
  2
ANCON-TEXT
 70
     0
 62
     6
  6
CONTINUOUS
370
    -3
390
E4
  0
LAYER
  5
22
330
A
100
AcDbSymbolTableRecord
100
AcDbLayerTableRecord
  2
ANCON-MASONRY
 70
     0
 62
     1
  6
CONTINUOUS
370
    -3
390
E4
  0
LAYER
  5
1F
330
A
100
AcDbSymbolTableRecord
100
AcDbLayerTableRecord
  2
ANCON-WINDPOST
 70
     0
 62
     3
  6
CONTINUOUS
370
    -3
390
E4
  0
LAYER
  5
29
330
A
100
AcDbSymbolTableRecord
100
AcDbLayerTableRecord
  2
ANCON-STRUC
 70
     0
 62
     2
  6
CONTINUOUS
370
    -3
390
E4
  0
LAYER
  5
25
330
A
100
AcDbSymbolTableRecord
100
AcDbLayerTableRecord
  2
ANCON-CHANNEL
 70
     0
 62
     1
  6
CONTINUOUS
370
    -3
390
E4
  0
LAYER
  5
7C
330
A
100
AcDbSymbolTableRecord
100
AcDbLayerTableRecord
  2
ANCON-BOLT
 70
     0
 62
     1
  6
CONTINUOUS
370
    -3
390
E4
  0
LAYER
  5
F1
330
A
100
AcDbSymbolTableRecord
100
AcDbLayerTableRecord
  2
ANCON-ORIGIN
 70
     0
 62
     1
  6
CONTINUOUS
370
    -3
390
E4
  0
ENDTAB
  0
TABLE
  2
STYLE
  5
B
330
0
100
AcDbSymbolTable
 70
     2
  0
STYLE
  5
C
330
B
100
AcDbSymbolTableRecord
100
AcDbTextStyleTableRecord
  2
STANDARD
 70
     0
 40
0.0
 41
1.0
 50
0.0
 71
     0
 42
3.0
  3
txt.shx
  4

  0
STYLE
  5
1B
330
B
100
AcDbSymbolTableRecord
100
AcDbTextStyleTableRecord
  2
ROMANS
 70
     0
 40
9.0
 41
1.0
 50
0.0
 71
     0
 42
9.0
  3
romans
  4

  0
ENDTAB
  0
TABLE
  2
VIEW
  5
10
330
0
100
AcDbSymbolTable
 70
     0
  0
ENDTAB
  0
TABLE
  2
UCS
  5
11
330
0
100
AcDbSymbolTable
 70
     0
  0
ENDTAB
  0
TABLE
  2
APPID
  5
14
330
0
100
AcDbSymbolTable
 70
     1
  0
APPID
  5
15
330
14
100
AcDbSymbolTableRecord
100
AcDbRegAppTableRecord
  2
ACAD
 70
     0
  0
ENDTAB
  0
TABLE
  2
DIMSTYLE
  5
16
330
0
100
AcDbSymbolTable
 70
     2
100
AcDbDimStyleTable
 71
     0
  0
DIMSTYLE
105
1D
330
16
100
AcDbSymbolTableRecord
100
AcDbDimStyleTableRecord
  2
1-5
 70
     0
 40
5.0
 41
0.0
 42
4.5
 43
0.0
 44
1.5
 45
1.0
 46
1.25
 73
     0
 74
     0
 77
     1
 78
    12
140
1.8
141
0.0
142
1.0
143
0.04
146
1.25
147
0.1
271
     2
272
     2
279
     2
284
    12
285
    12
286
    12
340
1B
  0
DIMSTYLE
105
F2
330
16
100
AcDbSymbolTableRecord
100
AcDbDimStyleTableRecord
  2
STANDARD
 70
     0
340
C
  0
ENDTAB
  0
TABLE
  2
BLOCK_RECORD
  5
1
330
0
100
AcDbSymbolTable
 70
     2
  0
BLOCK_RECORD
  5
2
330
1
100
AcDbSymbolTableRecord
100
AcDbBlockTableRecord
  2
*MODEL_SPACE
340
E7
  0
BLOCK_RECORD
  5
7
330
1
100
AcDbSymbolTableRecord
100
AcDbBlockTableRecord
  2
*PAPER_SPACE
340
E8
  0
BLOCK_RECORD
  5
ED
330
1
100
AcDbSymbolTableRecord
100
AcDbBlockTableRecord
  2
OR
340
0
  0
BLOCK_RECORD
  5
F3
330
1
100
AcDbSymbolTableRecord
100
AcDbBlockTableRecord
  2
30channel
340
0
102
{BLKREFS
331
145
102
}
  0
ENDTAB
  0
ENDSEC
  0
SECTION
  2
BLOCKS
  0
BLOCK
  5
3
330
2
100
AcDbEntity
  8
0
100
AcDbBlockBegin
  2
*MODEL_SPACE
 70
     0
 10
0.0
 20
0.0
 30
0.0
  3
*MODEL_SPACE
  1

  0
ENDBLK
  5
6
330
2
100
AcDbEntity
  8
0
100
AcDbBlockEnd
  0
BLOCK
  5
8
330
7
100
AcDbEntity
 67
     1
  8
0
100
AcDbBlockBegin
  2
*PAPER_SPACE
 70
     0
 10
0.0
 20
0.0
 30
0.0
  3
*PAPER_SPACE
  1

  0
ENDBLK
  5
9
330
7
100
AcDbEntity
 67
     1
  8
0
100
AcDbBlockEnd
  0
BLOCK
  5
EF
330
ED
100
AcDbEntity
  8
0
100
AcDbBlockBegin
  2
OR
 70
     0
 10
0.0
 20
0.0
 30
0.0
  3
OR
  1

  0
LWPOLYLINE
  5
EE
330
ED
100
AcDbEntity
  8
ANCON-ORIGIN
100
AcDbPolyline
 90
        5
 70
     0
 43
0.0
 10
-10.17326135673704
 20
-6.213917405744268
 10
-10.17326135673704
 20
6.213917405744268
 10
10.17326135673704
 20
-6.213917405744268
 10
10.17326135673704
 20
6.213917405744268
 10
-10.17326135673704
 20
-6.213917405744268
  0
ENDBLK
  5
F0
330
ED
100
AcDbEntity
  8
0
100
AcDbBlockEnd
  0
BLOCK
  5
143
330
F3
100
AcDbEntity
  8
0
100
AcDbBlockBegin
  2
30channel
 70
     0
 10
0.0
 20
0.0
 30
0.0
  3
30channel
  1

  0
TEXT
  5
F4
330
F3
100
AcDbEntity
  8
ANCON-TEXT
100
AcDbText
 10
-388.3538807824293
 20
-45.23572445620127
 30
0.0
 40
9.0
  1

  7
ROMANS
100
AcDbText
  0
TEXT
  5
F5
330
F3
100
AcDbEntity
  8
ANCON-TEXT
100
AcDbText
 10
-388.3538807824293
 20
-59.59282782648878
 30
0.0
 40
9.0
  1

  7
ROMANS
100
AcDbText
  0
TEXT
  5
F6
330
F3
100
AcDbEntity
  8
ANCON-TEXT
100
AcDbText
 10
-333.3312888541478
 20
-30.5001404103975
 30
0.0
 40
9.0
  1

  7
ROMANS
100
AcDbText
  0
TEXT
  5
F7
330
F3
100
AcDbEntity
  8
ANCON-TEXT
100
AcDbText
 10
-333.3312888541478
 20
13.21414530388827
 30
0.0
 40
9.0
  1
STANDARD EDGE : 75mm
  7
ROMANS
100
AcDbText
  0
TEXT
  5
F8
330
F3
100
AcDbEntity
  8
ANCON-TEXT
100
AcDbText
 10
-333.3312888541478
 20
27.78557387531682
 30
0.0
 40
9.0
  1
ANCON 30/20 CAST-IN CHANNEL
  7
ROMANS
100
AcDbText
  0
LINE
  5
F9
330
F3
100
AcDbEntity
  8
ANCON-CHANNEL
100
AcDbLine
 10
-284.8827690584341
 20
61.33809506595651
 30
0.0
 11
-284.8827690584341
 21
72.85165908403107
 31
0.0
  0
LINE
  5
FA
330
F3
100
AcDbEntity
  8
ANCON-CHANNEL
100
AcDbLine
 10
-270.7594500359755
 20
63.95330328856516
 30
0.0
 11
-270.7594500359755
 21
67.78446787575103
 31
0.0
  0
LINE
  5
FB
330
F3
100
AcDbEntity
  8
ANCON-CHANNEL
100
AcDbLine
 10
-271.7594500359755
 20
64.37379761831403
 30
0.0
 11
-271.7594500359755
 21
66.56970877590964
 31
0.0
  0
LINE
  5
FC
330
F3
100
AcDbEntity
  8
ANCON-CHANNEL
100
AcDbLine
 10
-270.7594500359755
 20
61.33809506595652
 30
0.0
 11
-270.7594500359755
 21
63.29920329505552
 31
0.0
  0
LINE
  5
FD
330
F3
100
AcDbEntity
  8
ANCON-CHANNEL
100
AcDbLine
 10
-269.7594500359755
 20
61.33809506595651
 30
0.0
 11
-269.7594500359755
 21
63.25248078397692
 31
0.0
  0
LINE
  5
FE
330
F3
100
AcDbEntity
  8
ANCON-CHANNEL
100
AcDbLine
 10
-269.7594500359755
 20
64.65412717147995
 30
0.0
 11
-269.7594500359755
 21
67.78446787575103
 31
0.0
  0
LINE
  5
FF
330
F3
100
AcDbEntity
  8
ANCON-CHANNEL
100
AcDbLine
 10
-269.7594500359755
 20
68.5787340241701
 30
0.0
 11
-269.7594500359755
 21
70.58775927243061
 31
0.0
  0
LINE
  5
100
330
F3
100
AcDbEntity
  8
ANCON-CHANNEL
100
AcDbLine
 10
-270.7594500359755
 20
68.25168333825207
 30
0.0
 11
-270.7594500359755
 21
70.40087336309551
 31
0.0
  0
LINE
  5
101
330
F3
100
AcDbEntity
  8
ANCON-CHANNEL
100
AcDbLine
 10
-271.7594500359755
 20
67.17708901499356
 30
0.0
 11
-271.7594500359755
 21
68.90578471008814
 31
0.0
  0
LINE
  5
102
330
F3
100
AcDbEntity
  8
ANCON-CHANNEL
100
AcDbLine
 10
-271.7594500359755
 20
69.55988608192427
 30
0.0
 11
-271.7594500359755
 21
72.85165908403107
 31
0.0
  0
LINE
  5
103
330
F3
100
AcDbEntity
  8
ANCON-CHANNEL
100
AcDbLine
 10
-260.7140562725162
 20
63.95330328856516
 30
0.0
 11
-260.7140562725162
 21
67.78446787575103
 31
0.0
  0
LINE
  5
104
330
F3
100
AcDbEntity
  8
ANCON-CHANNEL
100
AcDbLine
 10
-261.7140562725162
 20
64.37379761831403
 30
0.0
 11
-261.7140562725162
 21
66.56970877590964
 31
0.0
  0
LINE
  5
105
330
F3
100
AcDbEntity
  8
ANCON-CHANNEL
100
AcDbLine
 10
-259.7140562725162
 20
61.33809506595651
 30
0.0
 11
-259.7140562725162
 21
63.25248078397692
 31
0.0
  0
LINE
  5
106
330
F3
100
AcDbEntity
  8
ANCON-CHANNEL
100
AcDbLine
 10
-260.7140562725162
 20
61.33809506595652
 30
0.0
 11
-260.7140562725162
 21
63.29920329505552
 31
0.0
  0
LINE
  5
107
330
F3
100
AcDbEntity
  8
ANCON-CHANNEL
100
AcDbLine
 10
-260.7140562725162
 20
68.25168333825207
 30
0.0
 11
-260.7140562725162
 21
70.40087336309551
 31
0.0
  0
LINE
  5
108
330
F3
100
AcDbEntity
  8
ANCON-CHANNEL
100
AcDbLine
 10
-259.7140562725162
 20
68.5787340241701
 30
0.0
 11
-259.7140562725162
 21
70.58775927243061
 31
0.0
  0
LINE
  5
109
330
F3
100
AcDbEntity
  8
ANCON-CHANNEL
100
AcDbLine
 10
-259.7140562725162
 20
64.65412717147995
 30
0.0
 11
-259.7140562725162
 21
67.78446787575103
 31
0.0
  0
LINE
  5
10A
330
F3
100
AcDbEntity
  8
ANCON-CHANNEL
100
AcDbLine
 10
-261.7140562725162
 20
67.17708901499356
 30
0.0
 11
-261.7140562725162
 21
68.90578471008814
 31
0.0
  0
LINE
  5
10B
330
F3
100
AcDbEntity
  8
ANCON-CHANNEL
100
AcDbLine
 10
-261.7140562725162
 20
69.55988608192427
 30
0.0
 11
-261.7140562725162
 21
73.10169586768376
 31
0.0
  0
LINE
  5
10C
330
F3
100
AcDbEntity
  8
ANCON-CHANNEL
100
AcDbLine
 10
-250.6686625090569
 20
63.95330328856516
 30
0.0
 11
-250.6686625090569
 21
67.78446787575103
 31
0.0
  0
LINE
  5
10D
330
F3
100
AcDbEntity
  8
ANCON-CHANNEL
100
AcDbLine
 10
-251.6686625090569
 20
64.37379761831403
 30
0.0
 11
-251.6686625090569
 21
66.56970877590964
 31
0.0
  0
LINE
  5
10E
330
F3
100
AcDbEntity
  8
ANCON-CHANNEL
100
AcDbLine
 10
-250.6686625090569
 20
61.33809506595652
 30
0.0
 11
-250.6686625090569
 21
63.29920329505552
 31
0.0
  0
LINE
  5
10F
330
F3
100
AcDbEntity
  8
ANCON-CHANNEL
100
AcDbLine
 10
-249.6686625090569
 20
61.33809506595651
 30
0.0
 11
-249.6686625090569
 21
63.25248078397692
 31
0.0
  0
LINE
  5
110
330
F3
100
AcDbEntity
  8
ANCON-CHANNEL
100
AcDbLine
 10
-249.6686625090569
 20
64.65412717147995
 30
0.0
 11
-249.6686625090569
 21
67.78446787575103
 31
0.0
  0
LINE
  5
111
330
F3
100
AcDbEntity
  8
ANCON-CHANNEL
100
AcDbLine
 10
-249.6686625090569
 20
68.5787340241701
 30
0.0
 11
-249.6686625090569
 21
70.58775927243061
 31
0.0
  0
LINE
  5
112
330
F3
100
AcDbEntity
  8
ANCON-CHANNEL
100
AcDbLine
 10
-250.6686625090569
 20
68.25168333825207
 30
0.0
 11
-250.6686625090569
 21
70.40087336309551
 31
0.0
  0
LINE
  5
113
330
F3
100
AcDbEntity
  8
ANCON-CHANNEL
100
AcDbLine
 10
-251.6686625090569
 20
67.17708901499356
 30
0.0
 11
-251.6686625090569
 21
68.90578471008814
 31
0.0
  0
LINE
  5
114
330
F3
100
AcDbEntity
  8
ANCON-CHANNEL
100
AcDbLine
 10
-251.6686625090569
 20
69.55988608192427
 30
0.0
 11
-251.6686625090569
 21
73.10169586768376
 31
0.0
  0
LINE
  5
115
330
F3
100
AcDbEntity
  8
ANCON-CHANNEL
100
AcDbLine
 10
-231.5778749821383
 20
64.37379761831403
 30
0.0
 11
-231.5778749821383
 21
66.56970877590964
 31
0.0
  0
LINE
  5
116
330
F3
100
AcDbEntity
  8
ANCON-CHANNEL
100
AcDbLine
 10
-240.6232687455976
 20
63.95330328856516
 30
0.0
 11
-240.6232687455976
 21
67.78446787575103
 31
0.0
  0
LINE
  5
117
330
F3
100
AcDbEntity
  8
ANCON-CHANNEL
100
AcDbLine
 10
-241.6232687455976
 20
64.37379761831403
 30
0.0
 11
-241.6232687455976
 21
66.56970877590964
 31
0.0
  0
LINE
  5
118
330
F3
100
AcDbEntity
  8
ANCON-CHANNEL
100
AcDbLine
 10
-239.6232687455976
 20
61.33809506595651
 30
0.0
 11
-239.6232687455976
 21
63.25248078397692
 31
0.0
  0
LINE
  5
119
330
F3
100
AcDbEntity
  8
ANCON-CHANNEL
100
AcDbLine
 10
-240.6232687455976
 20
61.33809506595652
 30
0.0
 11
-240.6232687455976
 21
63.29920329505552
 31
0.0
  0
LINE
  5
11A
330
F3
100
AcDbEntity
  8
ANCON-CHANNEL
100
AcDbLine
 10
-239.6232687455976
 20
68.5787340241701
 30
0.0
 11
-239.6232687455976
 21
70.58775927243061
 31
0.0
  0
LINE
  5
11B
330
F3
100
AcDbEntity
  8
ANCON-CHANNEL
100
AcDbLine
 10
-239.6232687455976
 20
64.65412717147995
 30
0.0
 11
-239.6232687455976
 21
67.78446787575103
 31
0.0
  0
LINE
  5
11C
330
F3
100
AcDbEntity
  8
ANCON-CHANNEL
100
AcDbLine
 10
-240.6232687455976
 20
68.25168333825207
 30
0.0
 11
-240.6232687455976
 21
70.40087336309551
 31
0.0
  0
LINE
  5
11D
330
F3
100
AcDbEntity
  8
ANCON-CHANNEL
100
AcDbLine
 10
-241.6232687455976
 20
67.17708901499356
 30
0.0
 11
-241.6232687455976
 21
68.90578471008814
 31
0.0
  0
LINE
  5
11E
330
F3
100
AcDbEntity
  8
ANCON-CHANNEL
100
AcDbLine
 10
-241.6232687455976
 20
69.55988608192427
 30
0.0
 11
-241.6232687455976
 21
72.85165908403107
 31
0.0
  0
LINE
  5
11F
330
F3
100
AcDbEntity
  8
ANCON-CHANNEL
100
AcDbLine
 10
-231.5778749821383
 20
67.17708901499356
 30
0.0
 11
-231.5778749821383
 21
68.90578471008814
 31
0.0
  0
LINE
  5
120
330
F3
100
AcDbEntity
  8
ANCON-CHANNEL
100
AcDbLine
 10
-231.5778749821383
 20
69.55988608192427
 30
0.0
 11
-231.5778749821383
 21
73.10169586768376
 31
0.0
  0
LINE
  5
121
330
F3
100
AcDbEntity
  8
ANCON-CHANNEL
100
AcDbLine
 10
-230.5778749821383
 20
63.95330328856516
 30
0.0
 11
-230.5778749821383
 21
67.78446787575103
 31
0.0
  0
LINE
  5
122
330
F3
100
AcDbEntity
  8
ANCON-CHANNEL
100
AcDbLine
 10
-229.5778749821383
 20
61.33809506595651
 30
0.0
 11
-229.5778749821383
 21
63.25248078397692
 31
0.0
  0
LINE
  5
123
330
F3
100
AcDbEntity
  8
ANCON-CHANNEL
100
AcDbLine
 10
-230.5778749821383
 20
61.33809506595652
 30
0.0
 11
-230.5778749821383
 21
63.29920329505552
 31
0.0
  0
LINE
  5
124
330
F3
100
AcDbEntity
  8
ANCON-CHANNEL
100
AcDbLine
 10
-229.5778749821383
 20
64.65412717147995
 30
0.0
 11
-229.5778749821383
 21
67.78446787575103
 31
0.0
  0
LINE
  5
125
330
F3
100
AcDbEntity
  8
ANCON-CHANNEL
100
AcDbLine
 10
-229.5778749821383
 20
68.5787340241701
 30
0.0
 11
-229.5778749821383
 21
70.58775927243061
 31
0.0
  0
LINE
  5
126
330
F3
100
AcDbEntity
  8
ANCON-CHANNEL
100
AcDbLine
 10
-230.5778749821383
 20
68.25168333825207
 30
0.0
 11
-230.5778749821383
 21
70.40087336309551
 31
0.0
  0
LINE
  5
127
330
F3
100
AcDbEntity
  8
ANCON-CHANNEL
100
AcDbLine
 10
-217.8827690584341
 20
61.33809506595651
 30
0.0
 11
-217.8827690584342
 21
72.85165908403105
 31
0.0
  0
LINE
  5
128
330
F3
100
AcDbEntity
  8
ANCON-CHANNEL
100
AcDbLine
 10
-214.8827690584342
 20
61.33809506595652
 30
0.0
 11
-214.8827690584341
 21
72.85165908403105
 31
0.0
  0
LINE
  5
129
330
F3
100
AcDbEntity
  8
ANCON-CHANNEL
100
AcDbLine
 10
-220.3827690584341
 20
67.09487707499381
 30
0.0
 11
-220.3827690584342
 21
72.85165908403108
 31
0.0
  0
LINE
  5
12A
330
F3
100
AcDbEntity
  8
ANCON-CHANNEL
100
AcDbLine
 10
-220.3827690584341
 20
67.09487707499381
 30
0.0
 11
-220.3827690584342
 21
61.33809506595651
 31
0.0
  0
LINE
  5
12B
330
F3
100
AcDbEntity
  8
ANCON-CHANNEL
100
AcDbLine
 10
-201.3827690584341
 20
74.0948770749938
 30
0.0
 11
-201.3827690584341
 21
74.59487707499381
 31
0.0
  0
LINE
  5
12C
330
F3
100
AcDbEntity
  8
ANCON-CHANNEL
100
AcDbLine
 10
-201.3827690584341
 20
74.59487707499381
 30
0.0
 11
-201.3827690584341
 21
74.0948770749938
 31
0.0
  0
LINE
  5
12D
330
F3
100
AcDbEntity
  8
ANCON-CHANNEL
100
AcDbLine
 10
-201.3827690584341
 20
59.04845893241088
 30
0.0
 11
-201.3827690584341
 21
60.0948770749938
 31
0.0
  0
LINE
  5
12E
330
F3
100
AcDbEntity
  8
ANCON-CHANNEL
100
AcDbLine
 10
-201.3827690584341
 20
59.59487707499381
 30
0.0
 11
-201.3827690584341
 21
59.04845893241087
 31
0.0
  0
LINE
  5
12F
330
F3
100
AcDbEntity
  8
ANCON-CHANNEL
100
AcDbLine
 10
-218.7470324555025
 20
75.19751687607386
 30
0.0
 11
-207.4384431731572
 21
79.36383924325368
 31
0.0
  0
LINE
  5
130
330
F3
100
AcDbEntity
  8
ANCON-CHANNEL
100
AcDbLine
 10
-207.4384431731572
 20
54.82591490673385
 30
0.0
 11
-218.7470324555025
 21
58.99223727391373
 31
0.0
  0
LINE
  5
131
330
F3
100
AcDbEntity
  8
ANCON-CHANNEL
100
AcDbLine
 10
-217.8827690584341
 20
72.85165908403105
 30
0.0
 11
-206.5741797760888
 21
77.0179814512109
 31
0.0
  0
LINE
  5
132
330
F3
100
AcDbEntity
  8
ANCON-CHANNEL
100
AcDbLine
 10
-206.5741797760888
 20
57.17177269877665
 30
0.0
 11
-217.8827690584341
 21
61.33809506595651
 31
0.0
  0
LINE
  5
133
330
F3
100
AcDbEntity
  8
ANCON-CHANNEL
100
AcDbLine
 10
-220.3827690584342
 20
72.85165908403107
 30
0.0
 11
-284.8827690584341
 21
72.85165908403105
 31
0.0
  0
LINE
  5
134
330
F3
100
AcDbEntity
  8
ANCON-CHANNEL
100
AcDbLine
 10
-220.3827690584341
 20
61.33809506595651
 30
0.0
 11
-284.8827690584341
 21
61.33809506595651
 31
0.0
  0
LINE
  5
135
330
F3
100
AcDbEntity
  8
ANCON-CHANNEL
100
AcDbLine
 10
-217.8827690584342
 20
72.85165908403105
 30
0.0
 11
-214.8827690584341
 21
72.85165908403105
 31
0.0
  0
LINE
  5
136
330
F3
100
AcDbEntity
  8
ANCON-CHANNEL
100
AcDbLine
 10
-217.8827690584341
 20
61.33809506595651
 30
0.0
 11
-214.8827690584341
 21
61.33809506595652
 31
0.0
  0
ARC
  5
137
330
F3
100
AcDbEntity
  8
ANCON-CHANNEL
100
AcDbCircle
 10
-217.8827690584342
 20
72.85165908403108
 30
0.0
 40
2.5
100
AcDbArc
 50
110.224859431168
 51
180.0
  0
ARC
  5
138
330
F3
100
AcDbEntity
  8
ANCON-CHANNEL
100
AcDbCircle
 10
-217.8827690584342
 20
61.33809506595651
 30
0.0
 40
2.5
100
AcDbArc
 50
180.0
 51
249.7751405688318
  0
LINE
  5
139
330
F3
100
AcDbEntity
  8
ANCON-CHANNEL
100
AcDbLine
 10
-203.8827690584341
 20
59.04845893241087
 30
0.0
 11
-203.8827690584341
 21
60.0948770749938
 31
0.0
  0
ARC
  5
13A
330
F3
100
AcDbEntity
  8
ANCON-CHANNEL
100
AcDbCircle
 10
-205.8827690584341
 20
75.14129521757668
 30
0.0
 40
2.0
100
AcDbArc
 50
0.0000000000000509
 51
110.2248594311681
  0
ARC
  5
13B
330
F3
100
AcDbEntity
  8
ANCON-CHANNEL
100
AcDbCircle
 10
-205.8827690584341
 20
59.04845893241087
 30
0.0
 40
2.0
100
AcDbArc
 50
249.7751405688318
 51
0.0000000000000636
  0
ARC
  5
13C
330
F3
100
AcDbEntity
  8
ANCON-CHANNEL
100
AcDbCircle
 10
-205.8827690584341
 20
75.14129521757668
 30
0.0
 40
4.5
100
AcDbArc
 50
0.0000000000000509
 51
110.2248594311681
  0
ARC
  5
13D
330
F3
100
AcDbEntity
  8
ANCON-CHANNEL
100
AcDbCircle
 10
-205.8827690584341
 20
59.04845893241087
 30
0.0
 40
4.5
100
AcDbArc
 50
249.7751405688318
 51
0.0000000000000636
  0
LINE
  5
13E
330
F3
100
AcDbEntity
  8
ANCON-CHANNEL
100
AcDbLine
 10
-203.8827690584342
 20
74.0948770749938
 30
0.0
 11
-203.8827690584341
 21
75.14129521757668
 31
0.0
  0
LINE
  5
13F
330
F3
100
AcDbEntity
  8
ANCON-CHANNEL
100
AcDbLine
 10
-201.3827690584341
 20
74.0948770749938
 30
0.0
 11
-201.3827690584341
 21
75.14129521757668
 31
0.0
  0
LINE
  5
140
330
F3
100
AcDbEntity
  8
ANCON-CHANNEL
100
AcDbLine
 10
-201.3827690584341
 20
60.09487707499379
 30
0.0
 11
-201.3827690584341
 21
59.59487707499381
 31
0.0
  0
LINE
  5
141
330
F3
100
AcDbEntity
  8
ANCON-CHANNEL
100
AcDbLine
 10
-203.8827690584342
 20
74.0948770749938
 30
0.0
 11
-201.3827690584341
 21
74.0948770749938
 31
0.0
  0
LINE
  5
142
330
F3
100
AcDbEntity
  8
ANCON-CHANNEL
100
AcDbLine
 10
-203.8827690584341
 20
60.0948770749938
 30
0.0
 11
-201.3827690584341
 21
60.09487707499379
 31
0.0
  0
ENDBLK
  5
144
330
F3
100
AcDbEntity
  8
0
100
AcDbBlockEnd
  0
ENDSEC
  0
SECTION
  2
ENTITIES
  0
LINE
  5
1E
330
2
100
AcDbEntity
  8
ANCON-WINDPOST
100
AcDbLine
 10
70.00000000000006
 20
-49.99999999999994
 30
0.0
 11
70.00000000000006
 21
375.0
 31
0.0
  0
LINE
  5
20
330
2
100
AcDbEntity
  8
ANCON-WINDPOST
100
AcDbLine
 10
10.00000000000005
 20
50.00000000000011
 30
0.0
 11
10.00000000000005
 21
375.0
 31
0.0
  0
LINE
  5
21
330
2
100
AcDbEntity
  8
ANCON-MASONRY
100
AcDbLine
 10
-140.0
 20
85.0
 30
0.0
 11
-140.0
 21
300.0
 31
0.0
  0
LINE
  5
23
330
2
100
AcDbEntity
  8
ANCON-MASONRY
100
AcDbLine
 10
0.0
 20
85.0
 30
0.0
 11
0.0
 21
300.0
 31
0.0
  0
LINE
  5
27
330
2
100
AcDbEntity
  8
ANCON-MASONRY
100
AcDbLine
 10
0.0
 20
85.0
 30
0.0
 11
-140.0
 21
85.0
 31
0.0
  0
LINE
  5
28
330
2
100
AcDbEntity
  8
ANCON-STRUC
100
AcDbLine
 10
0.0
 20
75.0
 30
0.0
 11
-191.2271534864024
 21
75.0
 31
0.0
  0
LINE
  5
6E
330
2
100
AcDbEntity
  8
ANCON-WINDPOST
100
AcDbLine
 10
6.0
 20
50.0
 30
0.0
 11
6.0
 21
-50.0
 31
0.0
  0
LINE
  5
6F
330
2
100
AcDbEntity
  8
ANCON-WINDPOST
100
AcDbLine
 10
0.0
 20
50.0
 30
0.0
 11
0.0
 21
-50.0
 31
0.0
  0
LINE
  5
70
330
2
100
AcDbEntity
  8
ANCON-WINDPOST
100
AcDbLine
 10
70.00000000000006
 20
-50.0
 30
0.0
 11
70.00000000000006
 21
50.00000000000011
 31
0.0
  0
LINE
  5
71
330
2
100
AcDbEntity
  8
ANCON-MASONRY
100
AcDbLine
 10
100.0
 20
10.0
 30
0.0
 11
100.0
 21
75.0
 31
0.0
  0
LINE
  5
72
330
2
100
AcDbEntity
  8
ANCON-MASONRY
100
AcDbLine
 10
202.4999999999999
 20
10.0
 30
0.0
 11
202.4999999999999
 21
75.0
 31
0.0
  0
LINE
  5
73
330
2
100
AcDbEntity
  8
ANCON-STRUC
100
AcDbLine
 10
0.0
 20
75.0
 30
0.0
 11
0.0
 21
-65.0
 31
0.0
  0
LINE
  5
74
330
2
100
AcDbEntity
  8
ANCON-MASONRY
100
AcDbLine
 10
100.0
 20
0.0
 30
0.0
 11
202.4999999999999
 21
0.0
 31
0.0
  0
LINE
  5
75
330
2
100
AcDbEntity
  8
ANCON-MASONRY
100
AcDbLine
 10
100.0
 20
10.0
 30
0.0
 11
202.4999999999999
 21
10.0
 31
0.0
  0
LINE
  5
76
330
2
100
AcDbEntity
  8
ANCON-MASONRY
100
AcDbLine
 10
100.0
 20
-65.0
 30
0.0
 11
100.0
 21
0.0
 31
0.0
  0
LINE
  5
77
330
2
100
AcDbEntity
  8
ANCON-WINDPOST
100
AcDbLine
 10
70.00000000000006
 20
-50.0
 30
0.0
 11
0.0
 21
-50.0
 31
0.0
  0
LINE
  5
7B
330
2
100
AcDbEntity
  8
ANCON-BOLT
100
AcDbLine
 10
10.89992749874926
 20
6.038091644847497
 30
0.0
 11
18.52203694124972
 21
6.038091644847497
 31
0.0
  0
LINE
  5
7D
330
2
100
AcDbEntity
  8
ANCON-BOLT
100
AcDbLine
 10
10.89992749875545
 20
11.97760055249904
 30
0.0
 11
18.52203694122869
 21
11.97760055249904
 31
0.0
  0
LINE
  5
7E
330
2
100
AcDbEntity
  8
ANCON-BOLT
100
AcDbLine
 10
10.89992749873931
 20
-11.97760055249904
 30
0.0
 11
18.52203694128439
 21
-11.97760055249904
 31
0.0
  0
LINE
  5
7F
330
2
100
AcDbEntity
  8
ANCON-BOLT
100
AcDbLine
 10
10.89992749874926
 20
-6.038091644847099
 30
0.0
 11
18.52203694124972
 21
-6.038091644847099
 31
0.0
  0
LINE
  5
82
330
2
100
AcDbEntity
  8
ANCON-BOLT
100
AcDbLine
 10
6.0
 20
16.33309166250006
 30
0.0
 11
6.0
 21
-16.33309166250006
 31
0.0
  0
LINE
  5
83
330
2
100
AcDbEntity
  8
ANCON-BOLT
100
AcDbLine
 10
9.26661833249949
 20
16.33309166250006
 30
0.0
 11
9.26661833249949
 21
-16.33309166250006
 31
0.0
  0
ARC
  5
84
330
2
100
AcDbEntity
  8
ANCON-BOLT
100
AcDbCircle
 10
21.24421888499358
 20
0.0000000000005684
 30
0.0
 40
11.9776005524936
100
AcDbArc
 50
149.727358681085
 51
210.2726413189181
  0
LINE
  5
85
330
2
100
AcDbEntity
  8
ANCON-BOLT
100
AcDbLine
 10
9.26661833249949
 20
9.007846098673269
 30
0.0
 11
9.26661833249949
 21
-9.007846098672814
 31
0.0
  0
ARC
  5
93
330
2
100
AcDbEntity
  8
ANCON-BOLT
100
AcDbCircle
 10
12.7831418988672
 20
-9.007846098674633
 30
0.0
 40
3.516523566367934
100
AcDbArc
 50
122.3800650936792
 51
237.6199349062345
  0
LINE
  5
94
330
2
100
AcDbEntity
  8
ANCON-BOLT
100
AcDbLine
 10
6.0
 20
-16.33309166250006
 30
0.0
 11
9.26661833249949
 21
-16.33309166250006
 31
0.0
  0
ARC
  5
9F
330
2
100
AcDbEntity
  8
ANCON-BOLT
100
AcDbCircle
 10
12.7831418988672
 20
9.007846098674974
 30
0.0
 40
3.516523566367697
100
AcDbArc
 50
122.380065093762
 51
237.619934906323
  0
LINE
  5
A0
330
2
100
AcDbEntity
  8
ANCON-BOLT
100
AcDbLine
 10
9.26661833249949
 20
16.33309166250006
 30
0.0
 11
6.0
 21
16.33309166250006
 31
0.0
  0
LINE
  5
A2
330
2
100
AcDbEntity
  8
ANCON-BOLT
100
AcDbLine
 10
38.91112722249999
 20
6.161388242106625
 30
0.0
 11
38.91112722249999
 21
-5.835812020388289
 31
0.0
  0
LINE
  5
A3
330
2
100
AcDbEntity
  8
ANCON-BOLT
100
AcDbLine
 10
40.0
 20
5.072515464606738
 30
0.0
 11
40.0
 21
-4.746939242888288
 31
0.0
  0
ARC
  5
A4
330
2
100
AcDbEntity
  8
ANCON-BOLT
100
AcDbCircle
 10
8.177745555006708
 20
0.0000000000005684
 30
0.0
 40
11.97760055249255
100
AcDbArc
 50
329.7273586810804
 51
30.27264131891897
  0
LINE
  5
A5
330
2
100
AcDbEntity
  8
ANCON-BOLT
100
AcDbLine
 10
20.15534610749949
 20
9.007846098673269
 30
0.0
 11
20.15534610749949
 21
-9.007846098672814
 31
0.0
  0
LINE
  5
A6
330
2
100
AcDbEntity
  8
ANCON-BOLT
100
AcDbLine
 10
20.15534610749949
 20
-4.746939242888345
 30
0.0
 11
40.0
 21
-4.746939242888288
 31
0.0
  0
LINE
  5
A7
330
2
100
AcDbEntity
  8
ANCON-BOLT
100
AcDbLine
 10
20.15534610749949
 20
-5.835812020388289
 30
0.0
 11
38.91112722249991
 21
-5.835812020388289
 31
0.0
  0
ARC
  5
A8
330
2
100
AcDbEntity
  8
ANCON-BOLT
100
AcDbCircle
 10
16.63882254112934
 20
-9.007846098673439
 30
0.0
 40
3.516523566370364
100
AcDbArc
 50
302.3800650937876
 51
57.61993490621683
  0
LINE
  5
A9
330
2
100
AcDbEntity
  8
ANCON-BOLT
100
AcDbLine
 10
20.15534610749949
 20
-0.0000000000000568
 30
0.0
 11
20.15534610749949
 21
-6.533236664999662
 31
0.0
  0
LINE
  5
AA
330
2
100
AcDbEntity
  8
ANCON-BOLT
100
AcDbLine
 10
38.91112722249999
 20
-5.835812020388289
 30
0.0
 11
40.0
 21
-4.746939242888288
 31
0.0
  0
LINE
  5
AB
330
2
100
AcDbEntity
  8
ANCON-BOLT
100
AcDbLine
 10
20.15534610749949
 20
5.072515464606738
 30
0.0
 11
40.0
 21
5.072515464606738
 31
0.0
  0
LINE
  5
AC
330
2
100
AcDbEntity
  8
ANCON-BOLT
100
AcDbLine
 10
20.15534610749949
 20
6.161388242106738
 30
0.0
 11
38.91112722250005
 21
6.161388242106625
 31
0.0
  0
ARC
  5
AD
330
2
100
AcDbEntity
  8
ANCON-BOLT
100
AcDbCircle
 10
16.63882254112934
 20
9.007846098674008
 30
0.0
 40
3.516523566370156
100
AcDbArc
 50
302.3800650937798
 51
57.6199349062147
  0
LINE
  5
AE
330
2
100
AcDbEntity
  8
ANCON-BOLT
100
AcDbLine
 10
38.91112722249999
 20
6.161388242106738
 30
0.0
 11
40.0
 21
5.072515464606738
 31
0.0
  0
LINE
  5
AF
330
2
100
AcDbEntity
  8
ANCON-MASONRY
100
AcDbLine
 10
202.4999999999999
 20
-65.0
 30
0.0
 11
202.4999999999999
 21
0.0
 31
0.0
  0
LINE
  5
B0
330
2
100
AcDbEntity
  8
ANCON-TIE
100
AcDbLine
 10
92.50440866282003
 20
81.25
 30
0.0
 11
165.0
 21
81.25
 31
0.0
  0
LINE
  5
B2
330
2
100
AcDbEntity
  8
ANCON-TIE
100
AcDbLine
 10
92.50440866282003
 20
78.75
 30
0.0
 11
165.0
 21
78.75
 31
0.0
  0
LINE
  5
B3
330
2
100
AcDbEntity
  8
ANCON-MASONRY
100
AcDbLine
 10
100.0
 20
75.0
 30
0.0
 11
202.4999999999999
 21
75.0
 31
0.0
  0
LINE
  5
B4
330
2
100
AcDbEntity
  8
ANCON-MASONRY
100
AcDbLine
 10
100.0
 20
150.0
 30
0.0
 11
202.4999999999999
 21
150.0
 31
0.0
  0
LINE
  5
B5
330
2
100
AcDbEntity
  8
ANCON-MASONRY
100
AcDbLine
 10
100.0
 20
85.0
 30
0.0
 11
202.4999999999999
 21
85.0
 31
0.0
  0
LINE
  5
B6
330
2
100
AcDbEntity
  8
ANCON-MASONRY
100
AcDbLine
 10
100.0
 20
85.0
 30
0.0
 11
100.0
 21
150.0
 31
0.0
  0
LINE
  5
B7
330
2
100
AcDbEntity
  8
ANCON-WINDPOST
100
AcDbLine
 10
70.00000000000006
 20
50.00000000000011
 30
0.0
 11
0.0
 21
50.0
 31
0.0
  0
LINE
  5
B9
330
2
100
AcDbEntity
  8
ANCON-TIE
100
AcDbLine
 10
85.00440866282003
 20
74.75
 30
0.0
 11
92.50440866282003
 21
78.75
 31
0.0
  0
LINE
  5
BA
330
2
100
AcDbEntity
  8
ANCON-TIE
100
AcDbLine
 10
85.00440866282003
 20
77.25
 30
0.0
 11
92.50440866282003
 21
81.25
 31
0.0
  0
LINE
  5
BB
330
2
100
AcDbEntity
  8
ANCON-TIE
100
AcDbLine
 10
70.00000000000006
 20
81.25
 30
0.0
 11
77.50440866282002
 21
81.25
 31
0.0
  0
LINE
  5
BC
330
2
100
AcDbEntity
  8
ANCON-TIE
100
AcDbLine
 10
70.00000000000006
 20
78.75
 30
0.0
 11
77.50440866282002
 21
78.75
 31
0.0
  0
LINE
  5
BD
330
2
100
AcDbEntity
  8
ANCON-TIE
100
AcDbLine
 10
77.50440866282002
 20
78.75
 30
0.0
 11
85.00440866282003
 21
74.75
 31
0.0
  0
LINE
  5
BE
330
2
100
AcDbEntity
  8
ANCON-TIE
100
AcDbLine
 10
77.50440866282002
 20
81.25
 30
0.0
 11
85.00440866282003
 21
77.25
 31
0.0
  0
LINE
  5
BF
330
2
100
AcDbEntity
  8
ANCON-MASONRY
100
AcDbLine
 10
202.4999999999999
 20
85.0
 30
0.0
 11
202.4999999999999
 21
150.0
 31
0.0
  0
LINE
  5
C0
330
2
100
AcDbEntity
  8
ANCON-TIE
100
AcDbLine
 10
165.0
 20
81.25
 30
0.0
 11
165.0
 21
78.75
 31
0.0
  0
LINE
  5
C1
330
2
100
AcDbEntity
  8
ANCON-TIE
100
AcDbLine
 10
-65.0
 20
303.75
 30
0.0
 11
10.00000000000005
 21
303.75
 31
0.0
  0
LINE
  5
C2
330
2
100
AcDbEntity
  8
ANCON-TIE
100
AcDbLine
 10
-65.0
 20
306.25
 30
0.0
 11
10.00000000000005
 21
306.25
 31
0.0
  0
LINE
  5
C3
330
2
100
AcDbEntity
  8
ANCON-MASONRY
100
AcDbLine
 10
0.0
 20
310.0
 30
0.0
 11
-140.0
 21
310.0
 31
0.0
  0
LINE
  5
C4
330
2
100
AcDbEntity
  8
ANCON-MASONRY
100
AcDbLine
 10
0.0
 20
300.0
 30
0.0
 11
-140.0
 21
300.0
 31
0.0
  0
LINE
  5
C5
330
2
100
AcDbEntity
  8
ANCON-MASONRY
100
AcDbLine
 10
-140.0
 20
310.0
 30
0.0
 11
-140.0
 21
375.0
 31
0.0
  0
LINE
  5
C6
330
2
100
AcDbEntity
  8
ANCON-TIE
100
AcDbLine
 10
-65.0
 20
306.25
 30
0.0
 11
-65.0
 21
303.75
 31
0.0
  0
LINE
  5
C7
330
2
100
AcDbEntity
  8
ANCON-MASONRY
100
AcDbLine
 10
100.0
 20
235.0
 30
0.0
 11
100.0
 21
300.0
 31
0.0
  0
LINE
  5
C8
330
2
100
AcDbEntity
  8
ANCON-MASONRY
100
AcDbLine
 10
202.4999999999999
 20
235.0
 30
0.0
 11
202.4999999999999
 21
300.0
 31
0.0
  0
LINE
  5
C9
330
2
100
AcDbEntity
  8
ANCON-MASONRY
100
AcDbLine
 10
100.0
 20
235.0
 30
0.0
 11
202.4999999999999
 21
235.0
 31
0.0
  0
LINE
  5
CA
330
2
100
AcDbEntity
  8
ANCON-MASONRY
100
AcDbLine
 10
100.0
 20
160.0
 30
0.0
 11
202.4999999999999
 21
160.0
 31
0.0
  0
LINE
  5
CB
330
2
100
AcDbEntity
  8
ANCON-MASONRY
100
AcDbLine
 10
100.0
 20
225.0
 30
0.0
 11
202.4999999999999
 21
225.0
 31
0.0
  0
LINE
  5
CC
330
2
100
AcDbEntity
  8
ANCON-MASONRY
100
AcDbLine
 10
100.0
 20
160.0
 30
0.0
 11
100.0
 21
225.0
 31
0.0
  0
LINE
  5
CD
330
2
100
AcDbEntity
  8
ANCON-MASONRY
100
AcDbLine
 10
202.4999999999999
 20
160.0
 30
0.0
 11
202.4999999999999
 21
225.0
 31
0.0
  0
LINE
  5
CE
330
2
100
AcDbEntity
  8
ANCON-TIE
100
AcDbLine
 10
92.50440866282003
 20
303.75
 30
0.0
 11
165.0
 21
303.75
 31
0.0
  0
LINE
  5
CF
330
2
100
AcDbEntity
  8
ANCON-TIE
100
AcDbLine
 10
92.50440866282003
 20
306.25
 30
0.0
 11
165.0
 21
306.25
 31
0.0
  0
LINE
  5
D0
330
2
100
AcDbEntity
  8
ANCON-MASONRY
100
AcDbLine
 10
100.0
 20
310.0
 30
0.0
 11
202.4999999999999
 21
310.0
 31
0.0
  0
LINE
  5
D1
330
2
100
AcDbEntity
  8
ANCON-MASONRY
100
AcDbLine
 10
100.0
 20
300.0
 30
0.0
 11
202.4999999999999
 21
300.0
 31
0.0
  0
LINE
  5
D2
330
2
100
AcDbEntity
  8
ANCON-MASONRY
100
AcDbLine
 10
0.0
 20
310.0
 30
0.0
 11
0.0
 21
375.0
 31
0.0
  0
LINE
  5
D3
330
2
100
AcDbEntity
  8
ANCON-MASONRY
100
AcDbLine
 10
100.0
 20
310.0
 30
0.0
 11
100.0
 21
375.0
 31
0.0
  0
LINE
  5
D4
330
2
100
AcDbEntity
  8
ANCON-TIE
100
AcDbLine
 10
85.00440866282003
 20
299.75
 30
0.0
 11
92.50440866282003
 21
303.75
 31
0.0
  0
LINE
  5
D5
330
2
100
AcDbEntity
  8
ANCON-TIE
100
AcDbLine
 10
85.00440866282003
 20
302.2499999999999
 30
0.0
 11
92.50440866282003
 21
306.25
 31
0.0
  0
LINE
  5
D6
330
2
100
AcDbEntity
  8
ANCON-TIE
100
AcDbLine
 10
70.00000000000006
 20
306.25
 30
0.0
 11
77.50440866282002
 21
306.25
 31
0.0
  0
LINE
  5
D7
330
2
100
AcDbEntity
  8
ANCON-TIE
100
AcDbLine
 10
70.00000000000006
 20
303.75
 30
0.0
 11
77.50440866282002
 21
303.75
 31
0.0
  0
LINE
  5
D8
330
2
100
AcDbEntity
  8
ANCON-TIE
100
AcDbLine
 10
77.50440866282002
 20
303.75
 30
0.0
 11
85.00440866282003
 21
299.75
 31
0.0
  0
LINE
  5
D9
330
2
100
AcDbEntity
  8
ANCON-TIE
100
AcDbLine
 10
77.50440866282002
 20
306.25
 30
0.0
 11
85.00440866282003
 21
302.2499999999999
 31
0.0
  0
LINE
  5
DA
330
2
100
AcDbEntity
  8
ANCON-MASONRY
100
AcDbLine
 10
202.4999999999999
 20
310.0
 30
0.0
 11
202.4999999999999
 21
375.0
 31
0.0
  0
LINE
  5
DB
330
2
100
AcDbEntity
  8
ANCON-TIE
100
AcDbLine
 10
165.0
 20
306.25
 30
0.0
 11
165.0
 21
303.75
 31
0.0
  0
TEXT
  5
DC
330
2
100
AcDbEntity
  8
ANCON-TEXT
100
AcDbText
 10
291.0821571869056
 20
114.6467292933128
 30
0.0
 40
9.0
  1
long post and a wind load (UDL) of 2.9 kilonewtons.
  7
ROMANS
100
AcDbText
  0
TEXT
  5
DE
330
2
100
AcDbEntity
  8
ANCON-TEXT
100
AcDbText
 10
291.0821571869056
 20
129.2181578647414
 30
0.0
 40
9.0
  1
Ancon Building Products will design a system to a 2.5 metre
  7
ROMANS
100
AcDbText
  0
TEXT
  5
DF
330
2
100
AcDbEntity
  8
ANCON-TEXT
100
AcDbText
 10
291.0821571869056
 20
143.78958643617
 30
0.0
 40
9.0
  1
by the height/wind load (UDL) ie. WP1/2.5/2.9
  7
ROMANS
100
AcDbText
  0
TEXT
  5
E0
330
2
100
AcDbEntity
  8
ANCON-TEXT
100
AcDbText
 10
291.0821571869056
 20
158.3610150075985
 30
0.0
 40
9.0
  1
Ancon WP1 can be specified
  7
ROMANS
100
AcDbText
  0
TEXT
  5
E1
330
2
100
AcDbEntity
  8
ANCON-TEXT
100
AcDbText
 10
291.0821571869056
 20
196.8649183277159
 30
0.0
 40
9.0
  1
Ancon windpost type WP1
  7
ROMANS
100
AcDbText
  0
TEXT
  5
146
330
2
100
AcDbEntity
  8
ANCON-TEXT
100
AcDbText
 10
-417.3254956772393
 20
-112.4880591692999
 30
0.0
 40
9.0
  1

  7
ROMANS
100
AcDbText
  0
TEXT
  5
147
330
2
100
AcDbEntity
  8
ANCON-TEXT
100
AcDbText
 10
-417.3254956772393
 20
-126.8451625395874
 30
0.0
 40
9.0
  1

  7
ROMANS
100
AcDbText
  0
TEXT
  5
148
330
2
100
AcDbEntity
  8
ANCON-TEXT
100
AcDbText
 10
-362.3029037489578
 20
-97.75247512349617
 30
0.0
 40
9.0
  1

  7
ROMANS
100
AcDbText
  0
LINE
  5
14B
330
2
100
AcDbEntity
  8
ANCON-CHANNEL
100
AcDbLine
 10
-83.50000000000003
 20
-5.593993898178062
 30
0.0
 11
-83.50000000000003
 21
5.919570119896491
 31
0.0
  0
LINE
  5
14C
330
2
100
AcDbEntity
  8
ANCON-CHANNEL
100
AcDbLine
 10
-69.37668097754138
 20
-2.978785675569412
 30
0.0
 11
-69.37668097754138
 21
0.852378911616455
 31
0.0
  0
LINE
  5
14D
330
2
100
AcDbEntity
  8
ANCON-CHANNEL
100
AcDbLine
 10
-70.37668097754139
 20
-2.558291345820549
 30
0.0
 11
-70.37668097754139
 21
-0.3623801882249324
 31
0.0
  0
LINE
  5
14E
330
2
100
AcDbEntity
  8
ANCON-CHANNEL
100
AcDbLine
 10
-69.37668097754138
 20
-5.593993898178055
 30
0.0
 11
-69.37668097754138
 21
-3.632885669079058
 31
0.0
  0
LINE
  5
14F
330
2
100
AcDbEntity
  8
ANCON-CHANNEL
100
AcDbLine
 10
-68.37668097754132
 20
-5.593993898178062
 30
0.0
 11
-68.37668097754138
 21
-3.679608180157657
 31
0.0
  0
LINE
  5
150
330
2
100
AcDbEntity
  8
ANCON-CHANNEL
100
AcDbLine
 10
-68.37668097754138
 20
-2.277961792654622
 30
0.0
 11
-68.37668097754138
 21
0.852378911616455
 31
0.0
  0
LINE
  5
151
330
2
100
AcDbEntity
  8
ANCON-CHANNEL
100
AcDbLine
 10
-68.37668097754138
 20
1.646645060035524
 30
0.0
 11
-68.37668097754138
 21
3.655670308296038
 31
0.0
  0
LINE
  5
152
330
2
100
AcDbEntity
  8
ANCON-CHANNEL
100
AcDbLine
 10
-69.37668097754138
 20
1.319594374117485
 30
0.0
 11
-69.37668097754138
 21
3.468784398960934
 31
0.0
  0
LINE
  5
153
330
2
100
AcDbEntity
  8
ANCON-CHANNEL
100
AcDbLine
 10
-70.37668097754139
 20
0.2450000508589767
 30
0.0
 11
-70.37668097754139
 21
1.973695745953563
 31
0.0
  0
LINE
  5
154
330
2
100
AcDbEntity
  8
ANCON-CHANNEL
100
AcDbLine
 10
-70.37668097754139
 20
2.627797117789697
 30
0.0
 11
-70.37668097754139
 21
5.919570119896491
 31
0.0
  0
LINE
  5
155
330
2
100
AcDbEntity
  8
ANCON-CHANNEL
100
AcDbLine
 10
-59.33128721408209
 20
-2.978785675569412
 30
0.0
 11
-59.33128721408209
 21
0.852378911616455
 31
0.0
  0
LINE
  5
156
330
2
100
AcDbEntity
  8
ANCON-CHANNEL
100
AcDbLine
 10
-60.3312872140821
 20
-2.558291345820549
 30
0.0
 11
-60.3312872140821
 21
-0.3623801882249324
 31
0.0
  0
LINE
  5
157
330
2
100
AcDbEntity
  8
ANCON-CHANNEL
100
AcDbLine
 10
-58.33128721408204
 20
-5.593993898178062
 30
0.0
 11
-58.33128721408209
 21
-3.679608180157657
 31
0.0
  0
LINE
  5
158
330
2
100
AcDbEntity
  8
ANCON-CHANNEL
100
AcDbLine
 10
-59.33128721408209
 20
-5.593993898178055
 30
0.0
 11
-59.33128721408209
 21
-3.632885669079058
 31
0.0
  0
LINE
  5
159
330
2
100
AcDbEntity
  8
ANCON-CHANNEL
100
AcDbLine
 10
-59.33128721408209
 20
1.319594374117485
 30
0.0
 11
-59.33128721408209
 21
3.468784398960934
 31
0.0
  0
LINE
  5
15A
330
2
100
AcDbEntity
  8
ANCON-CHANNEL
100
AcDbLine
 10
-58.33128721408209
 20
1.646645060035524
 30
0.0
 11
-58.33128721408209
 21
3.655670308296038
 31
0.0
  0
LINE
  5
15B
330
2
100
AcDbEntity
  8
ANCON-CHANNEL
100
AcDbLine
 10
-58.33128721408209
 20
-2.277961792654622
 30
0.0
 11
-58.33128721408209
 21
0.852378911616455
 31
0.0
  0
LINE
  5
15C
330
2
100
AcDbEntity
  8
ANCON-CHANNEL
100
AcDbLine
 10
-60.3312872140821
 20
0.2450000508589767
 30
0.0
 11
-60.3312872140821
 21
1.973695745953563
 31
0.0
  0
LINE
  5
15D
330
2
100
AcDbEntity
  8
ANCON-CHANNEL
100
AcDbLine
 10
-60.3312872140821
 20
2.627797117789697
 30
0.0
 11
-60.3312872140821
 21
6.16960690354918
 31
0.0
  0
LINE
  5
15E
330
2
100
AcDbEntity
  8
ANCON-CHANNEL
100
AcDbLine
 10
-49.28589345062281
 20
-2.978785675569412
 30
0.0
 11
-49.28589345062281
 21
0.852378911616455
 31
0.0
  0
LINE
  5
15F
330
2
100
AcDbEntity
  8
ANCON-CHANNEL
100
AcDbLine
 10
-50.28589345062281
 20
-2.558291345820549
 30
0.0
 11
-50.28589345062281
 21
-0.3623801882249324
 31
0.0
  0
LINE
  5
160
330
2
100
AcDbEntity
  8
ANCON-CHANNEL
100
AcDbLine
 10
-49.28589345062275
 20
-5.593993898178055
 30
0.0
 11
-49.28589345062281
 21
-3.632885669079058
 31
0.0
  0
LINE
  5
161
330
2
100
AcDbEntity
  8
ANCON-CHANNEL
100
AcDbLine
 10
-48.28589345062275
 20
-5.593993898178062
 30
0.0
 11
-48.2858934506228
 21
-3.679608180157657
 31
0.0
  0
LINE
  5
162
330
2
100
AcDbEntity
  8
ANCON-CHANNEL
100
AcDbLine
 10
-48.2858934506228
 20
-2.277961792654622
 30
0.0
 11
-48.2858934506228
 21
0.852378911616455
 31
0.0
  0
LINE
  5
163
330
2
100
AcDbEntity
  8
ANCON-CHANNEL
100
AcDbLine
 10
-48.2858934506228
 20
1.646645060035524
 30
0.0
 11
-48.2858934506228
 21
3.655670308296038
 31
0.0
  0
LINE
  5
164
330
2
100
AcDbEntity
  8
ANCON-CHANNEL
100
AcDbLine
 10
-49.28589345062281
 20
1.319594374117485
 30
0.0
 11
-49.28589345062281
 21
3.468784398960934
 31
0.0
  0
LINE
  5
165
330
2
100
AcDbEntity
  8
ANCON-CHANNEL
100
AcDbLine
 10
-50.28589345062281
 20
0.2450000508589767
 30
0.0
 11
-50.28589345062281
 21
1.973695745953563
 31
0.0
  0
LINE
  5
166
330
2
100
AcDbEntity
  8
ANCON-CHANNEL
100
AcDbLine
 10
-50.28589345062281
 20
2.627797117789697
 30
0.0
 11
-50.28589345062281
 21
6.16960690354918
 31
0.0
  0
LINE
  5
167
330
2
100
AcDbEntity
  8
ANCON-CHANNEL
100
AcDbLine
 10
-30.19510592370423
 20
-2.558291345820549
 30
0.0
 11
-30.19510592370423
 21
-0.3623801882249324
 31
0.0
  0
LINE
  5
168
330
2
100
AcDbEntity
  8
ANCON-CHANNEL
100
AcDbLine
 10
-39.24049968716352
 20
-2.978785675569412
 30
0.0
 11
-39.24049968716352
 21
0.852378911616455
 31
0.0
  0
LINE
  5
169
330
2
100
AcDbEntity
  8
ANCON-CHANNEL
100
AcDbLine
 10
-40.24049968716352
 20
-2.558291345820549
 30
0.0
 11
-40.24049968716352
 21
-0.3623801882249324
 31
0.0
  0
LINE
  5
16A
330
2
100
AcDbEntity
  8
ANCON-CHANNEL
100
AcDbLine
 10
-38.24049968716346
 20
-5.593993898178062
 30
0.0
 11
-38.24049968716352
 21
-3.679608180157657
 31
0.0
  0
LINE
  5
16B
330
2
100
AcDbEntity
  8
ANCON-CHANNEL
100
AcDbLine
 10
-39.24049968716352
 20
-5.593993898178055
 30
0.0
 11
-39.24049968716352
 21
-3.632885669079058
 31
0.0
  0
LINE
  5
16C
330
2
100
AcDbEntity
  8
ANCON-CHANNEL
100
AcDbLine
 10
-38.24049968716352
 20
1.646645060035524
 30
0.0
 11
-38.24049968716352
 21
3.655670308296038
 31
0.0
  0
LINE
  5
16D
330
2
100
AcDbEntity
  8
ANCON-CHANNEL
100
AcDbLine
 10
-38.24049968716352
 20
-2.277961792654622
 30
0.0
 11
-38.24049968716352
 21
0.852378911616455
 31
0.0
  0
LINE
  5
16E
330
2
100
AcDbEntity
  8
ANCON-CHANNEL
100
AcDbLine
 10
-39.24049968716352
 20
1.319594374117485
 30
0.0
 11
-39.24049968716352
 21
3.468784398960934
 31
0.0
  0
LINE
  5
16F
330
2
100
AcDbEntity
  8
ANCON-CHANNEL
100
AcDbLine
 10
-40.24049968716352
 20
0.2450000508589767
 30
0.0
 11
-40.24049968716352
 21
1.973695745953563
 31
0.0
  0
LINE
  5
170
330
2
100
AcDbEntity
  8
ANCON-CHANNEL
100
AcDbLine
 10
-40.24049968716352
 20
2.627797117789697
 30
0.0
 11
-40.24049968716352
 21
5.919570119896491
 31
0.0
  0
LINE
  5
171
330
2
100
AcDbEntity
  8
ANCON-CHANNEL
100
AcDbLine
 10
-30.19510592370423
 20
0.2450000508589767
 30
0.0
 11
-30.19510592370423
 21
1.973695745953563
 31
0.0
  0
LINE
  5
172
330
2
100
AcDbEntity
  8
ANCON-CHANNEL
100
AcDbLine
 10
-30.19510592370423
 20
2.627797117789697
 30
0.0
 11
-30.19510592370423
 21
6.16960690354918
 31
0.0
  0
LINE
  5
173
330
2
100
AcDbEntity
  8
ANCON-CHANNEL
100
AcDbLine
 10
-29.19510592370423
 20
-2.978785675569412
 30
0.0
 11
-29.19510592370423
 21
0.852378911616455
 31
0.0
  0
LINE
  5
174
330
2
100
AcDbEntity
  8
ANCON-CHANNEL
100
AcDbLine
 10
-28.19510592370423
 20
-5.593993898178062
 30
0.0
 11
-28.19510592370423
 21
-3.679608180157657
 31
0.0
  0
LINE
  5
175
330
2
100
AcDbEntity
  8
ANCON-CHANNEL
100
AcDbLine
 10
-29.19510592370423
 20
-5.593993898178055
 30
0.0
 11
-29.19510592370423
 21
-3.632885669079058
 31
0.0
  0
LINE
  5
176
330
2
100
AcDbEntity
  8
ANCON-CHANNEL
100
AcDbLine
 10
-28.19510592370423
 20
-2.277961792654622
 30
0.0
 11
-28.19510592370423
 21
0.852378911616455
 31
0.0
  0
LINE
  5
177
330
2
100
AcDbEntity
  8
ANCON-CHANNEL
100
AcDbLine
 10
-28.19510592370423
 20
1.646645060035524
 30
0.0
 11
-28.19510592370423
 21
3.655670308296038
 31
0.0
  0
LINE
  5
178
330
2
100
AcDbEntity
  8
ANCON-CHANNEL
100
AcDbLine
 10
-29.19510592370423
 20
1.319594374117485
 30
0.0
 11
-29.19510592370423
 21
3.468784398960934
 31
0.0
  0
LINE
  5
179
330
2
100
AcDbEntity
  8
ANCON-CHANNEL
100
AcDbLine
 10
-16.50000000000003
 20
-5.593993898178062
 30
0.0
 11
-16.50000000000005
 21
5.919570119896476
 31
0.0
  0
LINE
  5
17A
330
2
100
AcDbEntity
  8
ANCON-CHANNEL
100
AcDbLine
 10
-13.50000000000008
 20
-5.593993898178055
 30
0.0
 11
-13.50000000000005
 21
5.919570119896476
 31
0.0
  0
LINE
  5
17B
330
2
100
AcDbEntity
  8
ANCON-CHANNEL
100
AcDbLine
 10
-19.00000000000003
 20
0.1627881108592248
 30
0.0
 11
-19.00000000000005
 21
5.919570119896505
 31
0.0
  0
LINE
  5
17C
330
2
100
AcDbEntity
  8
ANCON-CHANNEL
100
AcDbLine
 10
-19.00000000000003
 20
0.1627881108592248
 30
0.0
 11
-19.00000000000005
 21
-5.593993898178062
 31
0.0
  0
LINE
  5
17D
330
2
100
AcDbEntity
  8
ANCON-CHANNEL
100
AcDbLine
 10
-0.0000000000000284
 20
7.162788110859224
 30
0.0
 11
-0.0000000000000284
 21
7.662788110859224
 31
0.0
  0
LINE
  5
17E
330
2
100
AcDbEntity
  8
ANCON-CHANNEL
100
AcDbLine
 10
-0.0000000000000284
 20
7.662788110859224
 30
0.0
 11
-0.0000000000000284
 21
7.162788110859224
 31
0.0
  0
LINE
  5
17F
330
2
100
AcDbEntity
  8
ANCON-CHANNEL
100
AcDbLine
 10
0.0
 20
-7.883630031723704
 30
0.0
 11
0.0
 21
-6.837211889140775
 31
0.0
  0
LINE
  5
180
330
2
100
AcDbEntity
  8
ANCON-CHANNEL
100
AcDbLine
 10
-0.0000000000000284
 20
-7.337211889140775
 30
0.0
 11
0.0
 21
-7.883630031723711
 31
0.0
  0
LINE
  5
181
330
2
100
AcDbEntity
  8
ANCON-CHANNEL
100
AcDbLine
 10
-17.36426339706844
 20
8.265427911939283
 30
0.0
 11
-6.055674114723132
 21
12.4317502791191
 31
0.0
  0
LINE
  5
182
330
2
100
AcDbEntity
  8
ANCON-CHANNEL
100
AcDbLine
 10
-6.055674114723075
 20
-12.10617405740072
 30
0.0
 11
-17.36426339706844
 21
-7.939851690220841
 31
0.0
  0
LINE
  5
183
330
2
100
AcDbEntity
  8
ANCON-CHANNEL
100
AcDbLine
 10
-16.50000000000003
 20
5.919570119896476
 30
0.0
 11
-5.191410717654747
 21
10.08589248707632
 31
0.0
  0
LINE
  5
184
330
2
100
AcDbEntity
  8
ANCON-CHANNEL
100
AcDbLine
 10
-5.19141071765469
 20
-9.760316265357928
 30
0.0
 11
-16.50000000000003
 21
-5.593993898178069
 31
0.0
  0
LINE
  5
185
330
2
100
AcDbEntity
  8
ANCON-CHANNEL
100
AcDbLine
 10
-19.00000000000005
 20
5.919570119896491
 30
0.0
 11
-83.49999999999997
 21
5.919570119896476
 31
0.0
  0
LINE
  5
186
330
2
100
AcDbEntity
  8
ANCON-CHANNEL
100
AcDbLine
 10
-19.00000000000003
 20
-5.593993898178069
 30
0.0
 11
-83.50000000000003
 21
-5.593993898178069
 31
0.0
  0
LINE
  5
187
330
2
100
AcDbEntity
  8
ANCON-CHANNEL
100
AcDbLine
 10
-16.50000000000005
 20
5.919570119896476
 30
0.0
 11
-13.50000000000005
 21
5.919570119896476
 31
0.0
  0
LINE
  5
188
330
2
100
AcDbEntity
  8
ANCON-CHANNEL
100
AcDbLine
 10
-16.50000000000003
 20
-5.593993898178062
 30
0.0
 11
-13.50000000000002
 21
-5.593993898178055
 31
0.0
  0
ARC
  5
189
330
2
100
AcDbEntity
  8
ANCON-CHANNEL
100
AcDbCircle
 10
-16.50000000000005
 20
5.919570119896505
 30
0.0
 40
2.5
100
AcDbArc
 50
110.2248594311681
 51
180.0
  0
ARC
  5
18A
330
2
100
AcDbEntity
  8
ANCON-CHANNEL
100
AcDbCircle
 10
-16.50000000000005
 20
-5.593993898178062
 30
0.0
 40
2.5
100
AcDbArc
 50
180.0
 51
249.7751405688318
  0
LINE
  5
18B
330
2
100
AcDbEntity
  8
ANCON-CHANNEL
100
AcDbLine
 10
-2.499999999999971
 20
-7.883630031723711
 30
0.0
 11
-2.5
 21
-6.837211889140775
 31
0.0
  0
ARC
  5
18C
330
2
100
AcDbEntity
  8
ANCON-CHANNEL
100
AcDbCircle
 10
-4.500000000000028
 20
8.209206253442104
 30
0.0
 40
2.0
100
AcDbArc
 50
0.0
 51
110.2248594311681
  0
ARC
  5
18D
330
2
100
AcDbEntity
  8
ANCON-CHANNEL
100
AcDbCircle
 10
-4.499999999999971
 20
-7.883630031723711
 30
0.0
 40
2.0
100
AcDbArc
 50
249.7751405688318
 51
0.0
  0
ARC
  5
18E
330
2
100
AcDbEntity
  8
ANCON-CHANNEL
100
AcDbCircle
 10
-4.500000000000028
 20
8.209206253442104
 30
0.0
 40
4.5
100
AcDbArc
 50
0.0
 51
110.2248594311681
  0
ARC
  5
18F
330
2
100
AcDbEntity
  8
ANCON-CHANNEL
100
AcDbCircle
 10
-4.499999999999971
 20
-7.883630031723711
 30
0.0
 40
4.5
100
AcDbArc
 50
249.7751405688318
 51
0.0
  0
LINE
  5
190
330
2
100
AcDbEntity
  8
ANCON-CHANNEL
100
AcDbLine
 10
-2.500000000000056
 20
7.162788110859224
 30
0.0
 11
-2.500000000000028
 21
8.209206253442104
 31
0.0
  0
LINE
  5
191
330
2
100
AcDbEntity
  8
ANCON-CHANNEL
100
AcDbLine
 10
0.0
 20
7.162788110859224
 30
0.0
 11
0.0
 21
8.209206253442104
 31
0.0
  0
LINE
  5
192
330
2
100
AcDbEntity
  8
ANCON-CHANNEL
100
AcDbLine
 10
-0.0000000000000284
 20
-6.837211889140782
 30
0.0
 11
-0.0000000000000284
 21
-7.337211889140775
 31
0.0
  0
LINE
  5
193
330
2
100
AcDbEntity
  8
ANCON-CHANNEL
100
AcDbLine
 10
-2.500000000000056
 20
7.162788110859224
 30
0.0
 11
-0.0000000000000284
 21
7.162788110859224
 31
0.0
  0
LINE
  5
194
330
2
100
AcDbEntity
  8
ANCON-CHANNEL
100
AcDbLine
 10
-2.5
 20
-6.837211889140775
 30
0.0
 11
-0.0000000000000284
 21
-6.837211889140782
 31
0.0
  0
ENDSEC
  0
SECTION
  2
OBJECTS
  0
DICTIONARY
  5
1A
330
0
100
AcDbDictionary
281
     1
  3
ACAD_GROUP
350
18
  3
ACAD_LAYOUT
350
E5
  3
ACAD_MLINESTYLE
350
19
  3
ACAD_PLOTSETTINGS
350
E6
  3
ACAD_PLOTSTYLENAME
350
E3
  0
DICTIONARY
  5
18
102
{ACAD_REACTORS
330
1A
102
}
330
1A
100
AcDbDictionary
281
     1
  0
DICTIONARY
  5
E5
102
{ACAD_REACTORS
330
1A
102
}
330
1A
100
AcDbDictionary
281
     1
  3
Layout1
350
E8
  3
Model
350
E7
  0
DICTIONARY
  5
19
102
{ACAD_REACTORS
330
1A
102
}
330
1A
100
AcDbDictionary
281
     1
  3
STANDARD
350
1C
  0
DICTIONARY
  5
E6
102
{ACAD_REACTORS
330
1A
102
}
330
1A
100
AcDbDictionary
281
     1
  0
ACDBDICTIONARYWDFLT
  5
E3
102
{ACAD_REACTORS
330
1A
102
}
330
1A
100
AcDbDictionary
281
     1
  3
Normal
350
E4
100
AcDbDictionaryWithDefault
340
E4
  0
LAYOUT
  5
E8
102
{ACAD_REACTORS
330
E5
102
}
330
E5
100
AcDbPlotSettings
  1

  2
Ancon 2
  4

  6

 40
0.0
 41
0.0
 42
0.0
 43
0.0
 44
0.0
 45
0.0
 46
0.0
 47
0.0
 48
0.0
 49
0.0
140
0.0
141
0.0
142
1.0
143
1.0
 70
   688
 72
     0
 73
     0
 74
     5
  7

 75
    16
147
1.0
148
0.0
149
0.0
100
AcDbLayout
  1
Layout1
 70
     1
 71
     1
 10
0.0
 20
0.0
 11
420.0
 21
297.0
 12
0.0
 22
0.0
 32
0.0
 14
1.000000000000000E+20
 24
1.000000000000000E+20
 34
1.000000000000000E+20
 15
-1.000000000000000E+20
 25
-1.000000000000000E+20
 35
-1.000000000000000E+20
146
0.0
 13
0.0
 23
0.0
 33
0.0
 16
1.0
 26
0.0
 36
0.0
 17
0.0
 27
1.0
 37
0.0
 76
     0
330
7
  0
LAYOUT
  5
E7
102
{ACAD_REACTORS
330
E5
102
}
330
E5
100
AcDbPlotSettings
  1

  2
Ancon 2
  4

  6

 40
0.0
 41
0.0
 42
0.0
 43
0.0
 44
0.0
 45
0.0
 46
0.0
 47
0.0
 48
0.0
 49
0.0
140
0.0
141
0.0
142
1.0
143
1.0
 70
  1712
 72
     0
 73
     0
 74
     0
  7

 75
     0
147
1.0
148
0.0
149
0.0
100
AcDbLayout
  1
Model
 70
     1
 71
     0
 10
0.0
 20
0.0
 11
12.0
 21
9.0
 12
0.0
 22
0.0
 32
0.0
 14
0.0
 24
0.0
 34
0.0
 15
0.0
 25
0.0
 35
0.0
146
0.0
 13
0.0
 23
0.0
 33
0.0
 16
1.0
 26
0.0
 36
0.0
 17
0.0
 27
1.0
 37
0.0
 76
     0
330
2
  0
MLINESTYLE
  5
1C
102
{ACAD_REACTORS
330
19
102
}
330
19
100
AcDbMlineStyle
  2
STANDARD
 70
     0
  3

 62
   256
 51
90.0
 52
90.0
 71
     2
 49
0.5
 62
   256
  6
BYLAYER
 49
-0.5
 62
   256
  6
BYLAYER
  0
ACDBPLACEHOLDER
  5
E4
102
{ACAD_REACTORS
330
E3
102
}
330
E3
  0
ENDSEC
  0
EOF
