  0
SECTION
  2
HEADER
  9
$ACADVER
  1
AC1015
  9
$ACADMAINTVER
 70
    10
  9
$DWGCODEPAGE
  3
ANSI_1252
  9
$INSBASE
 10
0.0
 20
0.0
 30
0.0
  9
$EXTMIN
 10
368.5760184027
 20
-348.4131096467415
 30
0.0
  9
$EXTMAX
 10
838.8634940038018
 20
312.2142545471936
 30
0.0
  9
$LIMMIN
 10
0.0
 20
0.0
  9
$LIMMAX
 10
420.0
 20
297.0
  9
$ORTHOMODE
 70
     1
  9
$REGENMODE
 70
     1
  9
$FILLMODE
 70
     1
  9
$QTEXTMODE
 70
     0
  9
$MIRRTEXT
 70
     1
  9
$LTSCALE
 40
1.0
  9
$ATTMODE
 70
     1
  9
$TEXTSIZE
 40
9.0
  9
$TRACEWID
 40
10.0
  9
$TEXTSTYLE
  7
ROMANS
  9
$CLAYER
  8
ANCON-WINDPOST
  9
$CELTYPE
  6
BYLAYER
  9
$CECOLOR
 62
   256
  9
$CELTSCALE
 40
1.0
  9
$DISPSILH
 70
     0
  9
$DIMSCALE
 40
5.0
  9
$DIMASZ
 40
0.0
  9
$DIMEXO
 40
4.5
  9
$DIMDLI
 40
0.0
  9
$DIMRND
 40
1.0
  9
$DIMDLE
 40
1.25
  9
$DIMEXE
 40
1.5
  9
$DIMTP
 40
0.0
  9
$DIMTM
 40
0.0
  9
$DIMTXT
 40
1.8
  9
$DIMCEN
 40
0.0
  9
$DIMTSZ
 40
1.0
  9
$DIMTOL
 70
     0
  9
$DIMLIM
 70
     0
  9
$DIMTIH
 70
     0
  9
$DIMTOH
 70
     0
  9
$DIMSE1
 70
     0
  9
$DIMSE2
 70
     0
  9
$DIMTAD
 70
     1
  9
$DIMZIN
 70
    12
  9
$DIMBLK
  1

  9
$DIMASO
 70
     1
  9
$DIMSHO
 70
     0
  9
$DIMPOST
  1

  9
$DIMAPOST
  1

  9
$DIMALT
 70
     0
  9
$DIMALTD
 70
     2
  9
$DIMALTF
 40
0.04
  9
$DIMLFAC
 40
1.0
  9
$DIMTOFL
 70
     0
  9
$DIMTVP
 40
0.0
  9
$DIMTIX
 70
     0
  9
$DIMSOXD
 70
     0
  9
$DIMSAH
 70
     0
  9
$DIMBLK1
  1

  9
$DIMBLK2
  1

  9
$DIMSTYLE
  2
1-5
  9
$DIMCLRD
 70
     0
  9
$DIMCLRE
 70
     0
  9
$DIMCLRT
 70
     0
  9
$DIMTFAC
 40
1.25
  9
$DIMGAP
 40
0.1
  9
$DIMJUST
 70
     0
  9
$DIMSD1
 70
     0
  9
$DIMSD2
 70
     0
  9
$DIMTOLJ
 70
     1
  9
$DIMTZIN
 70
    12
  9
$DIMALTZ
 70
    12
  9
$DIMALTTZ
 70
    12
  9
$DIMUPT
 70
     0
  9
$DIMDEC
 70
     2
  9
$DIMTDEC
 70
     2
  9
$DIMALTU
 70
     2
  9
$DIMALTTD
 70
     2
  9
$DIMTXSTY
  7
ROMANS
  9
$DIMAUNIT
 70
     0
  9
$DIMADEC
 70
     0
  9
$DIMALTRND
 40
0.0
  9
$DIMAZIN
 70
     0
  9
$DIMDSEP
 70
    46
  9
$DIMATFIT
 70
     3
  9
$DIMFRAC
 70
     0
  9
$DIMLDRBLK
  1

  9
$DIMLUNIT
 70
     2
  9
$DIMLWD
 70
    -2
  9
$DIMLWE
 70
    -2
  9
$DIMTMOVE
 70
     2
  9
$LUNITS
 70
     2
  9
$LUPREC
 70
     2
  9
$SKETCHINC
 40
1.0
  9
$FILLETRAD
 40
0.0
  9
$AUNITS
 70
     0
  9
$AUPREC
 70
     4
  9
$MENU
  1
C:\ACADWIN\SUPPORT\ACAD
  9
$ELEVATION
 40
0.0
  9
$PELEVATION
 40
0.0
  9
$THICKNESS
 40
0.0
  9
$LIMCHECK
 70
     0
  9
$CHAMFERA
 40
0.0
  9
$CHAMFERB
 40
0.0
  9
$CHAMFERC
 40
0.0
  9
$CHAMFERD
 40
0.0
  9
$SKPOLY
 70
     0
  9
$TDCREATE
 40
2450429.655338657
  9
$TDUCREATE
 40
2450429.613671990
  9
$TDUPDATE
 40
2452487.864005902
  9
$TDUUPDATE
 40
2452487.822339236
  9
$TDINDWG
 40
0.2430157407
  9
$TDUSRTIMER
 40
0.2430157407
  9
$USRTIMER
 70
     1
  9
$ANGBASE
 50
0.0
  9
$ANGDIR
 70
     0
  9
$PDMODE
 70
     0
  9
$PDSIZE
 40
0.0
  9
$PLINEWID
 40
0.0
  9
$SPLFRAME
 70
     0
  9
$SPLINETYPE
 70
     6
  9
$SPLINESEGS
 70
     8
  9
$HANDSEED
  5
481
  9
$SURFTAB1
 70
    18
  9
$SURFTAB2
 70
    18
  9
$SURFTYPE
 70
     6
  9
$SURFU
 70
    18
  9
$SURFV
 70
    18
  9
$UCSBASE
  2

  9
$UCSNAME
  2

  9
$UCSORG
 10
0.0
 20
0.0
 30
0.0
  9
$UCSXDIR
 10
1.0
 20
0.0
 30
0.0
  9
$UCSYDIR
 10
0.0
 20
1.0
 30
0.0
  9
$UCSORTHOREF
  2

  9
$UCSORTHOVIEW
 70
     0
  9
$UCSORGTOP
 10
0.0
 20
0.0
 30
0.0
  9
$UCSORGBOTTOM
 10
0.0
 20
0.0
 30
0.0
  9
$UCSORGLEFT
 10
0.0
 20
0.0
 30
0.0
  9
$UCSORGRIGHT
 10
0.0
 20
0.0
 30
0.0
  9
$UCSORGFRONT
 10
0.0
 20
0.0
 30
0.0
  9
$UCSORGBACK
 10
0.0
 20
0.0
 30
0.0
  9
$PUCSBASE
  2

  9
$PUCSNAME
  2

  9
$PUCSORG
 10
0.0
 20
0.0
 30
0.0
  9
$PUCSXDIR
 10
1.0
 20
0.0
 30
0.0
  9
$PUCSYDIR
 10
0.0
 20
1.0
 30
0.0
  9
$PUCSORTHOREF
  2

  9
$PUCSORTHOVIEW
 70
     0
  9
$PUCSORGTOP
 10
0.0
 20
0.0
 30
0.0
  9
$PUCSORGBOTTOM
 10
0.0
 20
0.0
 30
0.0
  9
$PUCSORGLEFT
 10
0.0
 20
0.0
 30
0.0
  9
$PUCSORGRIGHT
 10
0.0
 20
0.0
 30
0.0
  9
$PUCSORGFRONT
 10
0.0
 20
0.0
 30
0.0
  9
$PUCSORGBACK
 10
0.0
 20
0.0
 30
0.0
  9
$USERI1
 70
     0
  9
$USERI2
 70
     0
  9
$USERI3
 70
     0
  9
$USERI4
 70
     0
  9
$USERI5
 70
     0
  9
$USERR1
 40
0.0
  9
$USERR2
 40
0.0
  9
$USERR3
 40
0.0
  9
$USERR4
 40
0.0
  9
$USERR5
 40
0.0
  9
$WORLDVIEW
 70
     1
  9
$SHADEDGE
 70
     3
  9
$SHADEDIF
 70
    70
  9
$TILEMODE
 70
     1
  9
$MAXACTVP
 70
    16
  9
$PINSBASE
 10
0.0
 20
0.0
 30
0.0
  9
$PLIMCHECK
 70
     0
  9
$PEXTMIN
 10
1.000000000000000E+20
 20
1.000000000000000E+20
 30
1.000000000000000E+20
  9
$PEXTMAX
 10
-1.000000000000000E+20
 20
-1.000000000000000E+20
 30
-1.000000000000000E+20
  9
$PLIMMIN
 10
0.0
 20
0.0
  9
$PLIMMAX
 10
420.0
 20
297.0
  9
$UNITMODE
 70
     0
  9
$VISRETAIN
 70
     0
  9
$PLINEGEN
 70
     0
  9
$PSLTSCALE
 70
     1
  9
$TREEDEPTH
 70
  3020
  9
$CMLSTYLE
  2
STANDARD
  9
$CMLJUST
 70
     0
  9
$CMLSCALE
 40
1.0
  9
$PROXYGRAPHICS
 70
     1
  9
$MEASUREMENT
 70
     0
  9
$CELWEIGHT
370
    -1
  9
$ENDCAPS
280
     0
  9
$JOINSTYLE
280
     0
  9
$LWDISPLAY
290
     0
  9
$INSUNITS
 70
     0
  9
$HYPERLINKBASE
  1

  9
$STYLESHEET
  1

  9
$XEDIT
290
     1
  9
$CEPSNTYPE
380
     0
  9
$PSTYLEMODE
290
     1
  9
$FINGERPRINTGUID
  2
{9E6D1AA5-A4BE-11D6-AAC6-0010A4A25215}
  9
$VERSIONGUID
  2
{9E6D1AAC-A4BE-11D6-AAC6-0010A4A25215}
  9
$EXTNAMES
290
     1
  9
$PSVPSCALE
 40
0.0
  9
$OLESTARTUP
290
     0
  0
ENDSEC
  0
SECTION
  2
CLASSES
  0
CLASS
  1
DICTIONARYVAR
  2
AcDbDictionaryVar
  3
AutoCAD 2000
 90
        0
280
     0
281
     0
  0
CLASS
  1
LWPOLYLINE
  2
AcDbPolyline
  3
AutoCAD 2000
 90
    32768
280
     0
281
     1
  0
CLASS
  1
ACDBDICTIONARYWDFLT
  2
AcDbDictionaryWithDefault
  3
AutoCAD 2000
 90
        0
280
     0
281
     0
  0
CLASS
  1
ACDBPLACEHOLDER
  2
AcDbPlaceHolder
  3
AutoCAD 2000
 90
        0
280
     0
281
     0
  0
CLASS
  1
LAYOUT
  2
AcDbLayout
  3
AutoCAD 2000
 90
        0
280
     0
281
     0
  0
ENDSEC
  0
SECTION
  2
TABLES
  0
TABLE
  2
VPORT
  5
8
330
0
100
AcDbSymbolTable
 70
     3
  0
VPORT
  5
480
330
8
100
AcDbSymbolTableRecord
100
AcDbViewportTableRecord
  2
*Active
 70
     0
 10
0.0
 20
0.0
 11
1.0
 21
1.0
 12
573.3607589366547
 22
-24.40793073867621
 13
0.0
 23
0.0
 14
5.0
 24
5.0
 15
10.0
 25
10.0
 16
0.0
 26
0.0
 36
1.0
 17
0.0
 27
0.0
 37
0.0
 40
750.3447081961753
 41
1.760948905109489
 42
50.0
 43
0.0
 44
0.0
 50
0.0
 51
0.0
 71
     0
 72
 20000
 73
     1
 74
     1
 75
     0
 76
     0
 77
     0
 78
     0
281
     0
 65
     1
110
0.0
120
0.0
130
0.0
111
1.0
121
0.0
131
0.0
112
0.0
122
1.0
132
0.0
 79
     0
146
0.0
  0
ENDTAB
  0
TABLE
  2
LTYPE
  5
5
330
0
100
AcDbSymbolTable
 70
     1
  0
LTYPE
  5
11
330
5
100
AcDbSymbolTableRecord
100
AcDbLinetypeTableRecord
  2
BYBLOCK
 70
     0
  3

 72
    65
 73
     0
 40
0.0
  0
LTYPE
  5
12
330
5
100
AcDbSymbolTableRecord
100
AcDbLinetypeTableRecord
  2
BYLAYER
 70
     0
  3

 72
    65
 73
     0
 40
0.0
  0
LTYPE
  5
13
330
5
100
AcDbSymbolTableRecord
100
AcDbLinetypeTableRecord
  2
CONTINUOUS
 70
     0
  3
Solid line
 72
    65
 73
     0
 40
0.0
  0
ENDTAB
  0
TABLE
  2
LAYER
  5
2
330
0
100
AcDbSymbolTable
 70
    14
  0
LAYER
  5
E
330
2
100
AcDbSymbolTableRecord
100
AcDbLayerTableRecord
  2
0
 70
     0
 62
     7
  6
CONTINUOUS
370
    -3
390
477
  0
LAYER
  5
2A
330
2
100
AcDbSymbolTableRecord
100
AcDbLayerTableRecord
  2
ANCON-TIE
 70
     0
 62
     1
  6
CONTINUOUS
370
    -3
390
477
  0
LAYER
  5
2B
330
2
100
AcDbSymbolTableRecord
100
AcDbLayerTableRecord
  2
ANCON-ORIGIN
 70
     0
 62
     1
  6
CONTINUOUS
370
    -3
390
477
  0
LAYER
  5
2C
330
2
100
AcDbSymbolTableRecord
100
AcDbLayerTableRecord
  2
ANCON-TEXT
 70
     0
 62
     6
  6
CONTINUOUS
370
    -3
390
477
  0
LAYER
  5
2D
330
2
100
AcDbSymbolTableRecord
100
AcDbLayerTableRecord
  2
GENTEXT
 70
     0
 62
     2
  6
CONTINUOUS
370
    -3
390
477
  0
LAYER
  5
2E
330
2
100
AcDbSymbolTableRecord
100
AcDbLayerTableRecord
  2
DDIMS
 70
     0
 62
     2
  6
CONTINUOUS
370
    -3
390
477
  0
LAYER
  5
2F
330
2
100
AcDbSymbolTableRecord
100
AcDbLayerTableRecord
  2
DEFPOINTS
 70
     0
 62
     7
  6
CONTINUOUS
290
     0
370
    -3
390
477
  0
LAYER
  5
30
330
2
100
AcDbSymbolTableRecord
100
AcDbLayerTableRecord
  2
ANCON-MASONRY
 70
     0
 62
     1
  6
CONTINUOUS
370
    -3
390
477
  0
LAYER
  5
31
330
2
100
AcDbSymbolTableRecord
100
AcDbLayerTableRecord
  2
ANCON-DIM
 70
     0
 62
     1
  6
CONTINUOUS
370
    -3
390
477
  0
LAYER
  5
32
330
2
100
AcDbSymbolTableRecord
100
AcDbLayerTableRecord
  2
DIMS
 70
     0
 62
     2
  6
CONTINUOUS
370
    -3
390
477
  0
LAYER
  5
33
330
2
100
AcDbSymbolTableRecord
100
AcDbLayerTableRecord
  2
ANCON-WINDPOST
 70
     0
 62
     3
  6
CONTINUOUS
370
    -3
390
477
  0
LAYER
  5
34
330
2
100
AcDbSymbolTableRecord
100
AcDbLayerTableRecord
  2
ANCON-BOLT
 70
     0
 62
     1
  6
CONTINUOUS
370
    -3
390
477
  0
LAYER
  5
35
330
2
100
AcDbSymbolTableRecord
100
AcDbLayerTableRecord
  2
ANCON-STRUC
 70
     0
 62
     2
  6
CONTINUOUS
370
    -3
390
477
  0
LAYER
  5
3E5
330
2
100
AcDbSymbolTableRecord
100
AcDbLayerTableRecord
  2
DANCON
 70
     0
 62
     4
  6
CONTINUOUS
370
    -3
390
477
  0
ENDTAB
  0
TABLE
  2
STYLE
  5
3
330
0
100
AcDbSymbolTable
 70
     2
  0
STYLE
  5
F
330
3
100
AcDbSymbolTableRecord
100
AcDbTextStyleTableRecord
  2
STANDARD
 70
     0
 40
0.0
 41
1.0
 50
0.0
 71
     0
 42
3.0
  3
txt.shx
  4

  0
STYLE
  5
24
330
3
100
AcDbSymbolTableRecord
100
AcDbTextStyleTableRecord
  2
ROMANS
 70
     0
 40
9.0
 41
1.0
 50
0.0
 71
     0
 42
9.0
  3
romans
  4

  0
ENDTAB
  0
TABLE
  2
VIEW
  5
6
330
0
100
AcDbSymbolTable
 70
     0
  0
ENDTAB
  0
TABLE
  2
UCS
  5
7
330
0
100
AcDbSymbolTable
 70
     0
  0
ENDTAB
  0
TABLE
  2
APPID
  5
9
330
0
100
AcDbSymbolTable
 70
     1
  0
APPID
  5
10
330
9
100
AcDbSymbolTableRecord
100
AcDbRegAppTableRecord
  2
ACAD
 70
     0
  0
ENDTAB
  0
TABLE
  2
DIMSTYLE
  5
A
330
0
100
AcDbSymbolTable
 70
     2
100
AcDbDimStyleTable
 71
     0
  0
DIMSTYLE
105
27
330
A
100
AcDbSymbolTableRecord
100
AcDbDimStyleTableRecord
  2
1-5
 70
     0
 40
5.0
 41
0.0
 42
4.5
 43
0.0
 44
1.5
 45
1.0
 46
1.25
 73
     0
 74
     0
 77
     1
 78
    12
140
1.8
141
0.0
142
1.0
143
0.04
146
1.25
147
0.1
271
     2
272
     2
279
     2
284
    12
285
    12
286
    12
340
24
  0
DIMSTYLE
105
3E6
330
A
100
AcDbSymbolTableRecord
100
AcDbDimStyleTableRecord
  2
STANDARD
 70
     0
340
F
  0
ENDTAB
  0
TABLE
  2
BLOCK_RECORD
  5
1
330
0
100
AcDbSymbolTable
 70
     3
  0
BLOCK_RECORD
  5
17
330
1
100
AcDbSymbolTableRecord
100
AcDbBlockTableRecord
  2
*MODEL_SPACE
340
47A
  0
BLOCK_RECORD
  5
14
330
1
100
AcDbSymbolTableRecord
100
AcDbBlockTableRecord
  2
*PAPER_SPACE
340
47B
  0
BLOCK_RECORD
  5
1C
330
1
100
AcDbSymbolTableRecord
100
AcDbBlockTableRecord
  2
OR
340
0
  0
BLOCK_RECORD
  5
3E7
330
1
100
AcDbSymbolTableRecord
100
AcDbBlockTableRecord
  2
BOLT02
340
0
  0
BLOCK_RECORD
  5
45F
330
1
100
AcDbSymbolTableRecord
100
AcDbBlockTableRecord
  2
BOLT55
340
0
  0
ENDTAB
  0
ENDSEC
  0
SECTION
  2
BLOCKS
  0
BLOCK
  5
38
330
17
100
AcDbEntity
  8
0
100
AcDbBlockBegin
  2
*MODEL_SPACE
 70
     0
 10
0.0
 20
0.0
 30
0.0
  3
*MODEL_SPACE
  1

  0
ENDBLK
  5
39
330
17
100
AcDbEntity
  8
0
100
AcDbBlockEnd
  0
BLOCK
  5
36
330
14
100
AcDbEntity
 67
     1
  8
0
100
AcDbBlockBegin
  2
*PAPER_SPACE
 70
     0
 10
0.0
 20
0.0
 30
0.0
  3
*PAPER_SPACE
  1

  0
ENDBLK
  5
37
330
14
100
AcDbEntity
 67
     1
  8
0
100
AcDbBlockEnd
  0
BLOCK
  5
3C
330
1C
100
AcDbEntity
  8
0
100
AcDbBlockBegin
  2
OR
 70
     0
 10
0.0
 20
0.0
 30
0.0
  3
OR
  1

  0
LWPOLYLINE
  5
3D
330
1C
100
AcDbEntity
  8
ANCON-ORIGIN
100
AcDbPolyline
 90
        5
 70
     0
 43
0.0
 10
-10.17326135673704
 20
-6.213917405744268
 10
-10.17326135673704
 20
6.213917405744268
 10
10.17326135673704
 20
-6.213917405744268
 10
10.17326135673704
 20
6.213917405744268
 10
-10.17326135673704
 20
-6.213917405744268
  0
ENDBLK
  5
44
330
1C
100
AcDbEntity
  8
0
100
AcDbBlockEnd
  0
BLOCK
  5
41F
330
3E7
100
AcDbEntity
  8
0
100
AcDbBlockBegin
  2
BOLT02
 70
     0
 10
0.0
 20
0.0
 30
0.0
  3
BOLT02
  1

  0
LINE
  5
3E8
330
3E7
100
AcDbEntity
  8
DANCON
 62
     1
100
AcDbLine
 10
-43.5
 20
-0.999999999999801
 30
0.0
 11
-77.5
 21
-0.999999999999801
 31
0.0
  0
LINE
  5
3E9
330
3E7
100
AcDbEntity
  8
DANCON
 62
     1
100
AcDbLine
 10
-43.5
 20
1.000000000000198
 30
0.0
 11
-77.5
 21
1.000000000000198
 31
0.0
  0
LINE
  5
3EA
330
3E7
100
AcDbEntity
  8
DANCON
 62
     1
100
AcDbLine
 10
-43.5
 20
-6.999999999999744
 30
0.0
 11
-77.5
 21
-6.999999999999744
 31
0.0
  0
LINE
  5
3EB
330
3E7
100
AcDbEntity
  8
DANCON
 62
     1
100
AcDbLine
 10
-43.5
 20
7.000000000000255
 30
0.0
 11
-77.5
 21
7.000000000000198
 31
0.0
  0
LINE
  5
3EC
330
3E7
100
AcDbEntity
  8
DANCON
 62
     1
100
AcDbLine
 10
-83.79860626563834
 20
4.759079755754868
 30
0.0
 11
-85.05110626563833
 21
3.50657975575487
 31
0.0
  0
LINE
  5
3ED
330
3E7
100
AcDbEntity
  8
DANCON
 62
     1
100
AcDbLine
 10
-82.5
 20
0.0000000000001421
 30
0.0
 11
-82.5
 21
6.205617150113283
 31
0.0
  0
LINE
  5
3EE
330
3E7
100
AcDbEntity
  8
DANCON
 62
     1
100
AcDbLine
 10
-82.10000000000013
 20
0.0000000000001421
 30
0.0
 11
-82.10000000000002
 21
6.605617150113204
 31
0.0
  0
LINE
  5
3EF
330
3E7
100
AcDbEntity
  8
DANCON
 62
     1
100
AcDbLine
 10
-81.50000000000011
 20
0.000000000000199
 30
0.0
 11
-81.5
 21
6.605617150112749
 31
0.0
  0
LINE
  5
3F0
330
3E7
100
AcDbEntity
  8
DANCON
 62
     1
100
AcDbLine
 10
-77.5
 20
7.000000000000198
 30
0.0
 11
-77.5
 21
1.000000000000198
 31
0.0
  0
LINE
  5
3F1
330
3E7
100
AcDbEntity
  8
DANCON
 62
     1
100
AcDbLine
 10
-83.79860626563834
 20
4.759079755754868
 30
0.0
 11
-83.79860626563834
 21
-4.809168218184169
 31
0.0
  0
LINE
  5
3F2
330
3E7
100
AcDbEntity
  8
DANCON
 62
     1
100
AcDbLine
 10
-82.50000000000003
 20
3.50657975575487
 30
0.0
 11
-85.05110626563833
 21
3.50657975575487
 31
0.0
  0
LINE
  5
3F3
330
3E7
100
AcDbEntity
  8
DANCON
 62
     1
100
AcDbLine
 10
-83.79860626563834
 20
-4.809168218184169
 30
0.0
 11
-85.05110626563833
 21
-3.556668218184171
 31
0.0
  0
LINE
  5
3F4
330
3E7
100
AcDbEntity
  8
DANCON
 62
     1
100
AcDbLine
 10
-82.50000000000003
 20
-3.556668218184171
 30
0.0
 11
-85.05110626563833
 21
-3.556668218184171
 31
0.0
  0
LINE
  5
3F5
330
3E7
100
AcDbEntity
  8
DANCON
 62
     1
100
AcDbLine
 10
-82.50000000000003
 20
-4.809168218184169
 30
0.0
 11
-83.79860626563834
 21
-4.809168218184169
 31
0.0
  0
LINE
  5
3F6
330
3E7
100
AcDbEntity
  8
DANCON
 62
     1
100
AcDbLine
 10
-82.5
 20
-6.205617150112828
 30
0.0
 11
-82.10000000000002
 21
-6.605617150112863
 31
0.0
  0
LINE
  5
3F7
330
3E7
100
AcDbEntity
  8
DANCON
 62
     1
100
AcDbLine
 10
-81.5
 20
-6.605617150112863
 30
0.0
 11
-82.10000000000002
 21
-6.605617150112863
 31
0.0
  0
LINE
  5
3F8
330
3E7
100
AcDbEntity
  8
DANCON
 62
     1
100
AcDbLine
 10
-81.50000000000011
 20
-6.605617150112408
 30
0.0
 11
-77.5
 21
-6.255662496008739
 31
0.0
  0
LINE
  5
3F9
330
3E7
100
AcDbEntity
  8
DANCON
 62
     1
100
AcDbLine
 10
-85.05110626563833
 20
-3.556668218184171
 30
0.0
 11
-85.05110626563833
 21
3.506579755754898
 31
0.0
  0
LINE
  5
3FA
330
3E7
100
AcDbEntity
  8
DANCON
 62
     1
100
AcDbLine
 10
-82.5
 20
0.000000000000199
 30
0.0
 11
-82.5
 21
-6.205617150112942
 31
0.0
  0
LINE
  5
3FB
330
3E7
100
AcDbEntity
  8
DANCON
 62
     1
100
AcDbLine
 10
-81.50000000000011
 20
0.0000000000001421
 30
0.0
 11
-81.5
 21
-6.605617150112408
 31
0.0
  0
LINE
  5
3FC
330
3E7
100
AcDbEntity
  8
DANCON
 62
     1
100
AcDbLine
 10
-82.10000000000013
 20
0.000000000000199
 30
0.0
 11
-82.10000000000002
 21
-6.605617150112863
 31
0.0
  0
LINE
  5
3FD
330
3E7
100
AcDbEntity
  8
DANCON
 62
     1
100
AcDbLine
 10
-77.5
 20
-0.999999999999801
 30
0.0
 11
-77.5
 21
-6.999999999999744
 31
0.0
  0
LINE
  5
3FE
330
3E7
100
AcDbEntity
  8
DANCON
 62
     1
100
AcDbLine
 10
-82.50000000000003
 20
4.759079755754868
 30
0.0
 11
-83.79860626563834
 21
4.759079755754868
 31
0.0
  0
LINE
  5
3FF
330
3E7
100
AcDbEntity
  8
DANCON
 62
     1
100
AcDbLine
 10
-82.5
 20
6.20561715011317
 30
0.0
 11
-82.10000000000002
 21
6.605617150113204
 31
0.0
  0
LINE
  5
400
330
3E7
100
AcDbEntity
  8
DANCON
 62
     1
100
AcDbLine
 10
-81.5
 20
6.605617150113204
 30
0.0
 11
-82.10000000000002
 21
6.605617150113204
 31
0.0
  0
LINE
  5
401
330
3E7
100
AcDbEntity
  8
DANCON
 62
     1
100
AcDbLine
 10
-81.50000000000011
 20
6.605617150112749
 30
0.0
 11
-77.5
 21
6.25566249600908
 31
0.0
  0
LINE
  5
402
330
3E7
100
AcDbEntity
  8
DANCON
 62
     1
100
AcDbLine
 10
-26.0
 20
7.000000000000198
 30
0.0
 11
-34.5
 21
7.000000000000255
 31
0.0
  0
LINE
  5
403
330
3E7
100
AcDbEntity
  8
DANCON
 62
     1
100
AcDbLine
 10
-26.0
 20
-6.999999999999744
 30
0.0
 11
-34.5
 21
-6.999999999999744
 31
0.0
  0
LINE
  5
404
330
3E7
100
AcDbEntity
  8
DANCON
 62
     1
100
AcDbLine
 10
-71.5
 20
1.000000000000198
 30
0.0
 11
-71.5
 21
-0.999999999999801
 31
0.0
  0
LINE
  5
405
330
3E7
100
AcDbEntity
  8
DANCON
 62
     1
100
AcDbLine
 10
-43.5
 20
7.000000000000198
 30
0.0
 11
-43.5
 21
1.000000000000198
 31
0.0
  0
LINE
  5
406
330
3E7
100
AcDbEntity
  8
DANCON
 62
     1
100
AcDbLine
 10
-34.5
 20
7.000000000000198
 30
0.0
 11
-34.5
 21
-6.999999999999801
 31
0.0
  0
LINE
  5
407
330
3E7
100
AcDbEntity
  8
DANCON
 62
     1
100
AcDbLine
 10
-43.5
 20
-5.499999999999801
 30
0.0
 11
-34.5
 21
-6.999999999999744
 31
0.0
  0
LINE
  5
408
330
3E7
100
AcDbEntity
  8
DANCON
 62
     1
100
AcDbLine
 10
-46.5
 20
1.000000000000198
 30
0.0
 11
-46.5
 21
-0.999999999999801
 31
0.0
  0
LINE
  5
409
330
3E7
100
AcDbEntity
  8
DANCON
 62
     1
100
AcDbLine
 10
-43.5
 20
-0.999999999999801
 30
0.0
 11
-43.5
 21
-6.999999999999801
 31
0.0
  0
LINE
  5
40A
330
3E7
100
AcDbEntity
  8
DANCON
 62
     1
100
AcDbLine
 10
-43.5
 20
5.500000000000198
 30
0.0
 11
-34.5
 21
7.000000000000255
 31
0.0
  0
LINE
  5
40B
330
3E7
100
AcDbEntity
  8
DANCON
 62
     1
100
AcDbLine
 10
2.0
 20
8.656250000000198
 30
0.0
 11
2.0
 21
-8.656249999999744
 31
0.0
  0
LINE
  5
40C
330
3E7
100
AcDbEntity
  8
DANCON
 62
     1
100
AcDbLine
 10
2.0
 20
10.49999999999997
 30
0.0
 11
2.0
 21
-10.49999999999997
 31
0.0
  0
LINE
  5
40D
330
3E7
100
AcDbEntity
  8
DANCON
 62
     1
100
AcDbLine
 10
0.0
 20
7.000000000000198
 30
0.0
 11
-24.5
 21
7.000000000000198
 31
0.0
  0
LINE
  5
40E
330
3E7
100
AcDbEntity
  8
DANCON
 62
     1
100
AcDbLine
 10
0.0
 20
-6.999999999999801
 30
0.0
 11
-24.5
 21
-6.999999999999744
 31
0.0
  0
LINE
  5
40F
330
3E7
100
AcDbEntity
  8
DANCON
 62
     1
100
AcDbLine
 10
-26.0
 20
7.000000000000198
 30
0.0
 11
-26.0
 21
-6.999999999999801
 31
0.0
  0
LINE
  5
410
330
3E7
100
AcDbEntity
  8
DANCON
 62
     1
100
AcDbLine
 10
-24.5
 20
7.000000000000198
 30
0.0
 11
-24.5
 21
-6.999999999999801
 31
0.0
  0
ARC
  5
411
330
3E7
100
AcDbEntity
  8
DANCON
 62
     1
100
AcDbCircle
 10
-25.25
 20
-7.917108186348201
 30
0.0
 40
1.184730950666545
100
AcDbArc
 50
50.7241144794105
 51
129.2758855205931
  0
ARC
  5
412
330
3E7
100
AcDbEntity
  8
DANCON
 62
     1
100
AcDbCircle
 10
-25.25
 20
7.917108186348656
 30
0.0
 40
1.184730950666545
100
AcDbArc
 50
230.7241144794068
 51
309.2758855205894
  0
LINE
  5
413
330
3E7
100
AcDbEntity
  8
DANCON
 62
     1
100
AcDbLine
 10
0.0
 20
15.00000000000002
 30
0.0
 11
1.999999999999658
 21
15.00000000000002
 31
0.0
  0
ARC
  5
414
330
3E7
100
AcDbEntity
  8
DANCON
 62
     1
100
AcDbCircle
 10
5.496525975208101
 20
-6.489181689590537
 30
0.0
 40
2.503474024792002
100
AcDbArc
 50
300.0459147637361
 51
59.95408523625167
  0
LINE
  5
415
330
3E7
100
AcDbEntity
  8
DANCON
 62
     1
100
AcDbLine
 10
0.0
 20
14.99999999999997
 30
0.0
 11
0.0
 21
-14.99999999999997
 31
0.0
  0
LINE
  5
416
330
3E7
100
AcDbEntity
  8
DANCON
 62
     1
100
AcDbLine
 10
1.999999999999658
 20
15.00000000000002
 30
0.0
 11
1.999999999999545
 21
-15.00000000000002
 31
0.0
  0
LINE
  5
417
330
3E7
100
AcDbEntity
  8
DANCON
 62
     1
100
AcDbLine
 10
0.0
 20
-14.99999999999997
 30
0.0
 11
1.999999999999545
 21
-14.99999999999997
 31
0.0
  0
LINE
  5
418
330
3E7
100
AcDbEntity
  8
DANCON
 62
     1
100
AcDbLine
 10
2.0
 20
-8.656249999999744
 30
0.0
 11
6.75
 21
-8.656249999999744
 31
0.0
  0
ARC
  5
419
330
3E7
100
AcDbEntity
  8
DANCON
 62
     1
100
AcDbCircle
 10
-0.0972656249998636
 20
-0.0000000000000284
 30
0.0
 40
8.097265624999911
100
AcDbArc
 50
327.7391653073663
 51
32.26083469263362
  0
LINE
  5
41A
330
3E7
100
AcDbEntity
  8
DANCON
 62
     1
100
AcDbLine
 10
8.0
 20
6.489181689590822
 30
0.0
 11
8.0
 21
-6.489181689590651
 31
0.0
  0
LINE
  5
41B
330
3E7
100
AcDbEntity
  8
DANCON
 62
     1
100
AcDbLine
 10
2.0
 20
-4.322113379181502
 30
0.0
 11
6.750000000000454
 21
-4.322113379181502
 31
0.0
  0
ARC
  5
41C
330
3E7
100
AcDbEntity
  8
DANCON
 62
     1
100
AcDbCircle
 10
5.496525975207646
 20
6.489181689590765
 30
0.0
 40
2.503474024792331
100
AcDbArc
 50
300.0459147637469
 51
59.95408523625976
  0
LINE
  5
41D
330
3E7
100
AcDbEntity
  8
DANCON
 62
     1
100
AcDbLine
 10
2.0
 20
4.322113379181502
 30
0.0
 11
6.750000000000341
 21
4.322113379181502
 31
0.0
  0
LINE
  5
41E
330
3E7
100
AcDbEntity
  8
DANCON
 62
     1
100
AcDbLine
 10
2.0
 20
8.656250000000198
 30
0.0
 11
6.750000000000568
 21
8.656250000000198
 31
0.0
  0
ENDBLK
  5
420
330
3E7
100
AcDbEntity
  8
0
100
AcDbBlockEnd
  0
BLOCK
  5
465
330
45F
100
AcDbEntity
  8
0
100
AcDbBlockBegin
  2
BOLT55
 70
     0
 10
0.0
 20
0.0
 30
0.0
  3
BOLT55
  1

  0
LWPOLYLINE
  5
460
330
45F
100
AcDbEntity
  8
DANCON
100
AcDbPolyline
 90
        6
 70
   129
 43
0.0
 10
4.907477288111806
 20
-8.5
 10
9.814954576223613
 20
0.0
 10
4.907477288111806
 20
8.5
 10
-4.907477288111806
 20
8.5
 10
-9.814954576223613
 20
0.0
 10
-4.907477288111806
 20
-8.5
  0
CIRCLE
  5
461
330
45F
100
AcDbEntity
  8
DANCON
100
AcDbCircle
 10
0.0
 20
0.0
 30
0.0
 40
10.5
  0
CIRCLE
  5
462
330
45F
100
AcDbEntity
  8
DANCON
100
AcDbCircle
 10
0.0
 20
0.0
 30
0.0
 40
8.5
  0
CIRCLE
  5
463
330
45F
100
AcDbEntity
  8
DANCON
100
AcDbCircle
 10
0.0
 20
0.0
 30
0.0
 40
4.9
  0
CIRCLE
  5
464
330
45F
100
AcDbEntity
  8
DANCON
100
AcDbCircle
 10
0.0
 20
0.0
 30
0.0
 40
3.9
  0
ENDBLK
  5
466
330
45F
100
AcDbEntity
  8
0
100
AcDbBlockEnd
  0
ENDSEC
  0
SECTION
  2
ENTITIES
  0
TEXT
  5
94
330
17
100
AcDbEntity
  8
ANCON-TEXT
100
AcDbText
 10
-391.4856317824299
 20
17.47227148062472
 30
0.0
 40
9.0
  1

  7
ROMANS
100
AcDbText
  0
TEXT
  5
95
330
17
100
AcDbEntity
  8
ANCON-TEXT
100
AcDbText
 10
-391.4856317824299
 20
-48.07306036763439
 30
0.0
 40
9.0
  1

  7
ROMANS
100
AcDbText
  0
TEXT
  5
96
330
17
100
AcDbEntity
  8
ANCON-TEXT
100
AcDbText
 10
-388.3538807824293
 20
-45.23572445620127
 30
0.0
 40
9.0
  1

  7
ROMANS
100
AcDbText
  0
TEXT
  5
97
330
17
100
AcDbEntity
  8
ANCON-TEXT
100
AcDbText
 10
-388.3538807824293
 20
-59.59282782648878
 30
0.0
 40
9.0
  1

  7
ROMANS
100
AcDbText
  0
TEXT
  5
98
330
17
100
AcDbEntity
  8
GENTEXT
100
AcDbText
 10
62.43213434884101
 20
227.411534326795
 30
0.0
 40
9.0
  1

  7
ROMANS
100
AcDbText
  0
TEXT
  5
99
330
17
100
AcDbEntity
  8
0
  6
ByBlock
 62
     0
100
AcDbText
 10
-302.4074208473984
 20
-359.5176815527009
 30
0.0
 40
1.8
  1

  7
ROMANS
 72
     4
 11
-302.4074208473984
 21
-359.5176815527009
 31
0.0
100
AcDbText
  0
TEXT
  5
9A
330
17
100
AcDbEntity
  8
0
  6
ByBlock
 62
     0
100
AcDbText
 10
-320.3410127517873
 20
-406.7745693458619
 30
0.0
 40
1.8
  1

  7
ROMANS
 72
     4
 11
-320.3410127517873
 21
-406.7745693458619
 31
0.0
100
AcDbText
  0
TEXT
  5
9B
330
17
100
AcDbEntity
  8
0
  6
ByBlock
 62
     0
100
AcDbText
 10
-258.0951587228644
 20
-482.7737387858857
 30
0.0
 40
1.8
  1

  7
ROMANS
 72
     4
 11
-258.0951587228644
 21
-482.7737387858857
 31
0.0
100
AcDbText
  0
TEXT
  5
9C
330
17
100
AcDbEntity
  8
0
  6
ByBlock
 62
     0
100
AcDbText
 10
-345.3203471393535
 20
-449.3523566298232
 30
0.0
 40
1.8
  1

  7
ROMANS
 72
     4
 11
-345.3203471393535
 21
-449.3523566298232
 31
0.0
100
AcDbText
  0
TEXT
  5
9D
330
17
100
AcDbEntity
  8
GENTEXT
100
AcDbText
 10
361.4276178538474
 20
348.5687810231307
 30
0.0
 40
9.0
  1

  7
ROMANS
100
AcDbText
  0
TEXT
  5
9E
330
17
100
AcDbEntity
  8
DDIMS
100
AcDbText
 10
1393.961241745643
 20
282.9438455948368
 30
0.0
 40
3.0
  1

  7
ROMANS
100
AcDbText
  0
TEXT
  5
9F
330
17
100
AcDbEntity
  8
DDIMS
100
AcDbText
 10
1434.23688268211
 20
282.9438455948368
 30
0.0
 40
3.0
  1

  7
ROMANS
100
AcDbText
  0
TEXT
  5
A0
330
17
100
AcDbEntity
  8
DDIMS
100
AcDbText
 10
1454.492463776481
 20
282.9438455948368
 30
0.0
 40
3.0
  1

  7
ROMANS
100
AcDbText
  0
TEXT
  5
A1
330
17
100
AcDbEntity
  8
DDIMS
100
AcDbText
 10
2782.760893436572
 20
945.684205534161
 30
0.0
 40
3.0
  1

  7
ROMANS
100
AcDbText
  0
TEXT
  5
A2
330
17
100
AcDbEntity
  8
DDIMS
100
AcDbText
 10
2823.03653437304
 20
945.684205534161
 30
0.0
 40
3.0
  1

  7
ROMANS
100
AcDbText
  0
TEXT
  5
A3
330
17
100
AcDbEntity
  8
DDIMS
100
AcDbText
 10
2843.29211546741
 20
945.684205534161
 30
0.0
 40
3.0
  1

  7
ROMANS
100
AcDbText
  0
TEXT
  5
A4
330
17
100
AcDbEntity
  8
DDIMS
100
AcDbText
 10
1092.936850632124
 20
382.3029535325586
 30
0.0
 40
3.0
  1

  7
ROMANS
100
AcDbText
  0
TEXT
  5
A5
330
17
100
AcDbEntity
  8
DDIMS
100
AcDbText
 10
1133.212491568591
 20
382.3029535325586
 30
0.0
 40
3.0
  1

  7
ROMANS
100
AcDbText
  0
TEXT
  5
A6
330
17
100
AcDbEntity
  8
DDIMS
100
AcDbText
 10
1153.468072662962
 20
382.3029535325586
 30
0.0
 40
3.0
  1

  7
ROMANS
100
AcDbText
  0
TEXT
  5
A7
330
17
100
AcDbEntity
  8
ANCON-TEXT
100
AcDbText
 10
-366.8694522849752
 20
313.6156448452649
 30
0.0
 40
9.0
  1

  7
ROMANS
100
AcDbText
  0
TEXT
  5
A8
330
17
100
AcDbEntity
  8
ANCON-TEXT
100
AcDbText
 10
-366.8694522849752
 20
248.0703129970058
 30
0.0
 40
9.0
  1

  7
ROMANS
100
AcDbText
  0
TEXT
  5
A9
330
17
100
AcDbEntity
  8
ANCON-TEXT
100
AcDbText
 10
-363.7377012849746
 20
250.9076489084389
 30
0.0
 40
9.0
  1

  7
ROMANS
100
AcDbText
  0
TEXT
  5
AA
330
17
100
AcDbEntity
  8
ANCON-TEXT
100
AcDbText
 10
-363.7377012849746
 20
236.5505455381514
 30
0.0
 40
9.0
  1

  7
ROMANS
100
AcDbText
  0
TEXT
  5
AB
330
17
100
AcDbEntity
  8
GENTEXT
100
AcDbText
 10
87.04831384629564
 20
523.5549076914353
 30
0.0
 40
9.0
  1

  7
ROMANS
100
AcDbText
  0
TEXT
  5
AC
330
17
100
AcDbEntity
  8
0
  6
ByBlock
 62
     0
100
AcDbText
 10
-277.7912413499438
 20
-63.37430818806075
 30
0.0
 40
1.8
  1

  7
ROMANS
 72
     4
 11
-277.7912413499438
 21
-63.37430818806075
 31
0.0
100
AcDbText
  0
TEXT
  5
AD
330
17
100
AcDbEntity
  8
0
  6
ByBlock
 62
     0
100
AcDbText
 10
-295.7248332543326
 20
-110.6311959812217
 30
0.0
 40
1.8
  1

  7
ROMANS
 72
     4
 11
-295.7248332543326
 21
-110.6311959812217
 31
0.0
100
AcDbText
  0
TEXT
  5
AE
330
17
100
AcDbEntity
  8
0
  6
ByBlock
 62
     0
100
AcDbText
 10
-233.4789792254098
 20
-186.6303654212455
 30
0.0
 40
1.8
  1

  7
ROMANS
 72
     4
 11
-233.4789792254098
 21
-186.6303654212455
 31
0.0
100
AcDbText
  0
TEXT
  5
AF
330
17
100
AcDbEntity
  8
0
  6
ByBlock
 62
     0
100
AcDbText
 10
-320.7041676418988
 20
-153.2089832651829
 30
0.0
 40
1.8
  1

  7
ROMANS
 72
     4
 11
-320.7041676418988
 21
-153.2089832651829
 31
0.0
100
AcDbText
  0
TEXT
  5
B0
330
17
100
AcDbEntity
  8
GENTEXT
100
AcDbText
 10
386.0437973513021
 20
644.712154387771
 30
0.0
 40
9.0
  1

  7
ROMANS
100
AcDbText
  0
TEXT
  5
B1
330
17
100
AcDbEntity
  8
DDIMS
100
AcDbText
 10
1418.577421243098
 20
579.0872189594771
 30
0.0
 40
3.0
  1

  7
ROMANS
100
AcDbText
  0
TEXT
  5
B2
330
17
100
AcDbEntity
  8
DDIMS
100
AcDbText
 10
1458.853062179565
 20
579.0872189594771
 30
0.0
 40
3.0
  1

  7
ROMANS
100
AcDbText
  0
TEXT
  5
B3
330
17
100
AcDbEntity
  8
DDIMS
100
AcDbText
 10
1479.108643273935
 20
579.0872189594771
 30
0.0
 40
3.0
  1

  7
ROMANS
100
AcDbText
  0
TEXT
  5
B4
330
17
100
AcDbEntity
  8
DDIMS
100
AcDbText
 10
2807.377072934027
 20
1241.827578898801
 30
0.0
 40
3.0
  1

  7
ROMANS
100
AcDbText
  0
TEXT
  5
B5
330
17
100
AcDbEntity
  8
DDIMS
100
AcDbText
 10
2847.652713870494
 20
1241.827578898801
 30
0.0
 40
3.0
  1

  7
ROMANS
100
AcDbText
  0
TEXT
  5
B6
330
17
100
AcDbEntity
  8
DDIMS
100
AcDbText
 10
2867.908294964865
 20
1241.827578898801
 30
0.0
 40
3.0
  1

  7
ROMANS
100
AcDbText
  0
TEXT
  5
B7
330
17
100
AcDbEntity
  8
ANCON-TEXT
100
AcDbText
 10
-241.4692837997729
 20
1099.53681257585
 30
0.0
 40
9.0
  1

  7
ROMANS
100
AcDbText
  0
TEXT
  5
B8
330
17
100
AcDbEntity
  8
ANCON-TEXT
100
AcDbText
 10
-241.4692837997729
 20
1085.179709205562
 30
0.0
 40
9.0
  1

  7
ROMANS
100
AcDbText
  0
TEXT
  5
B9
330
17
100
AcDbEntity
  8
GENTEXT
100
AcDbText
 10
934.7520568717611
 20
1393.262943171513
 30
0.0
 40
9.0
  1

  7
ROMANS
100
AcDbText
  0
TEXT
  5
BA
330
17
100
AcDbEntity
  8
ANCON-TEXT
100
AcDbText
 10
293.3330935186075
 20
990.6860869558549
 30
0.0
 40
9.0
  1

  7
ROMANS
100
AcDbText
  0
TEXT
  5
BB
330
17
100
AcDbEntity
  8
ANCON-TEXT
100
AcDbText
 10
293.3330935186075
 20
976.3289835855673
 30
0.0
 40
9.0
  1

  7
ROMANS
100
AcDbText
  0
TEXT
  5
BC
330
17
100
AcDbEntity
  8
ANCON-TEXT
100
AcDbText
 10
452.6687296760129
 20
1216.137164006612
 30
0.0
 40
9.0
  1

  7
ROMANS
100
AcDbText
  0
TEXT
  5
BD
330
17
100
AcDbEntity
  8
ANCON-TEXT
100
AcDbText
 10
452.6687296760129
 20
751.1684633521033
 30
0.0
 40
9.0
  1

  7
ROMANS
100
AcDbText
  0
TEXT
  5
BE
330
17
100
AcDbEntity
  8
ANCON-TEXT
100
AcDbText
 10
452.6687296760129
 20
809.9826575510119
 30
0.0
 40
9.0
  1

  7
ROMANS
100
AcDbText
  0
TEXT
  5
BF
330
17
100
AcDbEntity
  8
ANCON-TEXT
100
AcDbText
 10
-288.6153136905411
 20
1125.250144643772
 30
0.0
 40
9.0
  1

  7
ROMANS
100
AcDbText
  0
TEXT
  5
C0
330
17
100
AcDbEntity
  8
ANCON-TEXT
100
AcDbText
 10
-288.6153136905411
 20
1110.893041273484
 30
0.0
 40
9.0
  1

  7
ROMANS
100
AcDbText
  0
TEXT
  5
C1
330
17
100
AcDbEntity
  8
ANCON-TEXT
100
AcDbText
 10
-370.2800833015123
 20
1228.717748295498
 30
0.0
 40
9.0
  1

  7
ROMANS
100
AcDbText
  0
TEXT
  5
C2
330
17
100
AcDbEntity
  8
ANCON-TEXT
100
AcDbText
 10
-367.1483323015117
 20
1166.009752358672
 30
0.0
 40
9.0
  1

  7
ROMANS
100
AcDbText
  0
TEXT
  5
C3
330
17
100
AcDbEntity
  8
ANCON-TEXT
100
AcDbText
 10
-367.1483323015117
 20
1151.652648988385
 30
0.0
 40
9.0
  1

  7
ROMANS
100
AcDbText
  0
TEXT
  5
C4
330
17
100
AcDbEntity
  8
ANCON-TEXT
100
AcDbText
 10
-274.586639225313
 20
597.3606458916971
 30
0.0
 40
9.0
  1

  7
ROMANS
100
AcDbText
  0
TEXT
  5
C5
330
17
100
AcDbEntity
  8
ANCON-TEXT
100
AcDbText
 10
-274.586639225313
 20
531.815314043438
 30
0.0
 40
9.0
  1

  7
ROMANS
100
AcDbText
  0
TEXT
  5
C6
330
17
100
AcDbEntity
  8
ANCON-TEXT
100
AcDbText
 10
-271.4548882253124
 20
534.652649954871
 30
0.0
 40
9.0
  1

  7
ROMANS
100
AcDbText
  0
TEXT
  5
C7
330
17
100
AcDbEntity
  8
ANCON-TEXT
100
AcDbText
 10
-271.4548882253124
 20
520.2955465845835
 30
0.0
 40
9.0
  1

  7
ROMANS
100
AcDbText
  0
TEXT
  5
C8
330
17
100
AcDbEntity
  8
GENTEXT
100
AcDbText
 10
179.3311269059578
 20
807.2999087378674
 30
0.0
 40
9.0
  1

  7
ROMANS
100
AcDbText
  0
TEXT
  5
C9
330
17
100
AcDbEntity
  8
0
  6
ByBlock
 62
     0
100
AcDbText
 10
-185.5084282902816
 20
220.3706928583713
 30
0.0
 40
1.8
  1

  7
ROMANS
 72
     4
 11
-185.5084282902816
 21
220.3706928583713
 31
0.0
100
AcDbText
  0
TEXT
  5
CA
330
17
100
AcDbEntity
  8
0
  6
ByBlock
 62
     0
100
AcDbText
 10
-203.4420201946705
 20
173.1138050652103
 30
0.0
 40
1.8
  1

  7
ROMANS
 72
     4
 11
-203.4420201946705
 21
173.1138050652103
 31
0.0
100
AcDbText
  0
TEXT
  5
CB
330
17
100
AcDbEntity
  8
0
  6
ByBlock
 62
     0
100
AcDbText
 10
-141.1961661657475
 20
97.11463562518662
 30
0.0
 40
1.8
  1

  7
ROMANS
 72
     4
 11
-141.1961661657475
 21
97.11463562518662
 31
0.0
100
AcDbText
  0
TEXT
  5
CC
330
17
100
AcDbEntity
  8
0
  6
ByBlock
 62
     0
100
AcDbText
 10
-228.4213545822366
 20
130.5360177812491
 30
0.0
 40
1.8
  1

  7
ROMANS
 72
     4
 11
-228.4213545822366
 21
130.5360177812491
 31
0.0
100
AcDbText
  0
TEXT
  5
CD
330
17
100
AcDbEntity
  8
GENTEXT
100
AcDbText
 10
478.3266104109643
 20
928.4571554342031
 30
0.0
 40
9.0
  1

  7
ROMANS
100
AcDbText
  0
TEXT
  5
CE
330
17
100
AcDbEntity
  8
DDIMS
100
AcDbText
 10
1510.86023430276
 20
862.8322200059091
 30
0.0
 40
3.0
  1

  7
ROMANS
100
AcDbText
  0
TEXT
  5
CF
330
17
100
AcDbEntity
  8
DDIMS
100
AcDbText
 10
1551.135875239227
 20
862.8322200059091
 30
0.0
 40
3.0
  1

  7
ROMANS
100
AcDbText
  0
TEXT
  5
D0
330
17
100
AcDbEntity
  8
DDIMS
100
AcDbText
 10
1571.391456333597
 20
862.8322200059091
 30
0.0
 40
3.0
  1

  7
ROMANS
100
AcDbText
  0
TEXT
  5
D1
330
17
100
AcDbEntity
  8
DDIMS
100
AcDbText
 10
2899.659885993689
 20
1525.572579945233
 30
0.0
 40
3.0
  1

  7
ROMANS
100
AcDbText
  0
TEXT
  5
D2
330
17
100
AcDbEntity
  8
DDIMS
100
AcDbText
 10
2939.935526930156
 20
1525.572579945233
 30
0.0
 40
3.0
  1

  7
ROMANS
100
AcDbText
  0
TEXT
  5
D3
330
17
100
AcDbEntity
  8
DDIMS
100
AcDbText
 10
2960.191108024527
 20
1525.572579945233
 30
0.0
 40
3.0
  1

  7
ROMANS
100
AcDbText
  0
TEXT
  5
D4
330
17
100
AcDbEntity
  8
0
  6
ByBlock
 62
     0
100
AcDbText
 10
-155.2334855417924
 20
-72.46402088032539
 30
0.0
 40
1.8
  1

  7
ROMANS
 72
     4
 11
-155.2334855417924
 21
-72.46402088032539
 31
0.0
100
AcDbText
  0
TEXT
  5
D5
330
17
100
AcDbEntity
  8
0
  6
ByBlock
 62
     0
100
AcDbText
 10
-165.0680569987381
 20
-72.46402088032539
 30
0.0
 40
1.8
  1

  7
ROMANS
 72
     4
 11
-165.0680569987381
 21
-72.46402088032539
 31
0.0
100
AcDbText
  0
TEXT
  5
D6
330
17
100
AcDbEntity
  8
0
  6
ByBlock
 62
     0
100
AcDbText
 10
119.0233399480072
 20
-354.8657827831279
 30
0.0
 40
1.8
  1

  7
ROMANS
 72
     4
 11
119.0233399480072
 21
-354.8657827831279
 31
0.0
100
AcDbText
  0
TEXT
  5
D7
330
17
100
AcDbEntity
  8
0
  6
ByBlock
 62
     0
100
AcDbText
 10
109.1887684910615
 20
-354.8657827831279
 30
0.0
 40
1.8
  1

  7
ROMANS
 72
     4
 11
109.1887684910615
 21
-354.8657827831279
 31
0.0
100
AcDbText
  0
TEXT
  5
D8
330
17
100
AcDbEntity
  8
ANCON-TEXT
100
AcDbText
 10
86.12201265671364
 20
313.0117737246885
 30
0.0
 40
9.0
  1

  7
ROMANS
100
AcDbText
  0
TEXT
  5
D9
330
17
100
AcDbEntity
  8
ANCON-TEXT
100
AcDbText
 10
86.12201265671364
 20
298.6546703544009
 30
0.0
 40
9.0
  1

  7
ROMANS
100
AcDbText
  0
TEXT
  5
DA
330
17
100
AcDbEntity
  8
0
  6
ByBlock
 62
     0
100
AcDbText
 10
74.30232918281524
 20
-322.0426368035571
 30
0.0
 40
1.8
  1

  7
ROMANS
 72
     4
 11
74.30232918281524
 21
-322.0426368035571
 31
0.0
100
AcDbText
  0
TEXT
  5
DB
330
17
100
AcDbEntity
  8
0
  6
ByBlock
 62
     0
100
AcDbText
 10
64.46775772586955
 20
-322.0426368035571
 30
0.0
 40
1.8
  1

  7
ROMANS
 72
     4
 11
64.46775772586955
 21
-322.0426368035571
 31
0.0
100
AcDbText
  0
TEXT
  5
DC
330
17
100
AcDbEntity
  8
0
  6
ByBlock
 62
     0
100
AcDbText
 10
256.3480719945739
 20
-274.1320449623018
 30
0.0
 40
1.8
  1

  7
ROMANS
 72
     4
 11
256.3480719945739
 21
-274.1320449623018
 31
0.0
100
AcDbText
  0
TEXT
  5
DD
330
17
100
AcDbEntity
  8
0
  6
ByBlock
 62
     0
100
AcDbText
 10
246.5135005376282
 20
-274.1320449623018
 30
0.0
 40
1.8
  1

  7
ROMANS
 72
     4
 11
246.5135005376282
 21
-274.1320449623018
 31
0.0
100
AcDbText
  0
TEXT
  5
DE
330
17
100
AcDbEntity
  8
0
  6
ByBlock
 62
     0
100
AcDbText
 10
260.6562000123373
 20
-300.8350485758999
 30
0.0
 40
1.8
  1

  7
ROMANS
 72
     4
 11
260.6562000123373
 21
-300.8350485758999
 31
0.0
100
AcDbText
  0
TEXT
  5
DF
330
17
100
AcDbEntity
  8
0
  6
ByBlock
 62
     0
100
AcDbText
 10
250.8216285553916
 20
-300.8350485758999
 30
0.0
 40
1.8
  1

  7
ROMANS
 72
     4
 11
250.8216285553916
 21
-300.8350485758999
 31
0.0
100
AcDbText
  0
TEXT
  5
E0
330
17
100
AcDbEntity
  8
DIMS
100
AcDbText
 10
614.2151346828251
 20
238.5086181127225
 30
0.0
 40
3.0
  1
 
  7
ROMANS
 72
     2
 11
617.215134682825
 21
240.0086181127225
 31
0.0
100
AcDbText
 73
     2
  0
TEXT
  5
E1
330
17
100
AcDbEntity
  8
ANCON-TEXT
100
AcDbText
 10
-61.87071071716116
 20
186.6974877401235
 30
0.0
 40
9.0
  1

  7
ROMANS
100
AcDbText
  0
TEXT
  5
E2
330
17
100
AcDbEntity
  8
ANCON-TEXT
100
AcDbText
 10
-61.87071071716116
 20
121.1521558918643
 30
0.0
 40
9.0
  1

  7
ROMANS
100
AcDbText
  0
TEXT
  5
E3
330
17
100
AcDbEntity
  8
ANCON-TEXT
100
AcDbText
 10
-58.73895971716058
 20
123.9894918032975
 30
0.0
 40
9.0
  1

  7
ROMANS
100
AcDbText
  0
TEXT
  5
E4
330
17
100
AcDbEntity
  8
ANCON-TEXT
100
AcDbText
 10
-58.73895971716058
 20
109.6323884330099
 30
0.0
 40
9.0
  1

  7
ROMANS
100
AcDbText
  0
TEXT
  5
E5
330
17
100
AcDbEntity
  8
GENTEXT
100
AcDbText
 10
392.0470554141097
 20
396.6367505862938
 30
0.0
 40
9.0
  1

  7
ROMANS
100
AcDbText
  0
TEXT
  5
E6
330
17
100
AcDbEntity
  8
0
  6
ByBlock
 62
     0
100
AcDbText
 10
27.20750021787023
 20
-190.2924652932022
 30
0.0
 40
1.8
  1

  7
ROMANS
 72
     4
 11
27.20750021787023
 21
-190.2924652932022
 31
0.0
100
AcDbText
  0
TEXT
  5
1A2
330
17
100
AcDbEntity
  8
ANCON-TEXT
100
AcDbText
 10
388.863498580371
 20
-217.9074678381614
 30
0.0
 40
9.0
  1
Ancon windpost are individually designed and
  7
ROMANS
100
AcDbText
  0
TEXT
  5
1A3
330
17
100
AcDbEntity
  8
ANCON-TEXT
100
AcDbText
 10
388.863498580371
 20
-232.4788964095901
 30
0.0
 40
9.0
  1
manufactured to suit each project.
  7
ROMANS
100
AcDbText
  0
TEXT
  5
1A7
330
17
100
AcDbEntity
  8
ANCON-TEXT
100
AcDbText
 10
273.2207175659622
 20
88.26030205263624
 30
0.0
 40
9.0
  1

  7
ROMANS
100
AcDbText
  0
TEXT
  5
1AF
330
17
100
AcDbEntity
  8
ANCON-TEXT
100
AcDbText
 10
388.8634940038027
 20
-277.3511518711544
 30
0.0
 40
9.0
  1
Ancon WP2 can be specified
  7
ROMANS
100
AcDbText
  0
TEXT
  5
1B0
330
17
100
AcDbEntity
  8
ANCON-TEXT
100
AcDbText
 10
388.8634940038027
 20
-291.922580442583
 30
0.0
 40
9.0
  1
by the height/wind load (UDL) ie. WP2/3.2/6.9
  7
ROMANS
100
AcDbText
  0
TEXT
  5
1B1
330
17
100
AcDbEntity
  8
ANCON-TEXT
100
AcDbText
 10
388.8634940038027
 20
-306.4940090140115
 30
0.0
 40
9.0
  1
Ancon Building Products will design a system to a 3.2 metre
  7
ROMANS
100
AcDbText
  0
TEXT
  5
1B2
330
17
100
AcDbEntity
  8
ANCON-TEXT
100
AcDbText
 10
388.8634940038027
 20
-321.0654375854401
 30
0.0
 40
9.0
  1
long post and a wind load (UDL) of 6.9 kilonewtons total load
  7
ROMANS
100
AcDbText
  0
MTEXT
  5
1BF
330
17
100
AcDbEntity
  8
ANCON-TEXT
100
AcDbMText
 10
387.6336856790644
 20
-246.3868685703916
 30
0.0
 40
9.0
 41
326.8
 71
     1
 72
     5
  1
Alternative fixing to steelwork with set screws
  7
ROMANS
 73
     1
 44
1.0
  0
MTEXT
  5
1C0
330
17
100
AcDbEntity
  8
ANCON-TEXT
100
AcDbMText
 10
389.3182259750533
 20
-336.4131096467419
 30
0.0
 40
9.0
 41
478.41
 71
     1
 72
     5
  1
Current literature indicates a range of section sizes
  7
ROMANS
 73
     1
 44
1.0
  0
LINE
  5
1C3
330
17
100
AcDbEntity
  8
ANCON-WINDPOST
100
AcDbLine
 10
558.6786007476034
 20
-124.9999999999997
 30
0.0
 11
558.6786007476034
 21
0.0
 31
0.0
  0
LINE
  5
1C4
330
17
100
AcDbEntity
  8
ANCON-WINDPOST
100
AcDbLine
 10
552.6786007476034
 20
-124.9999999999997
 30
0.0
 11
552.6786007476034
 21
0.0
 31
0.0
  0
LINE
  5
1C5
330
17
100
AcDbEntity
  8
ANCON-BOLT
100
AcDbLine
 10
434.6786007476034
 20
0.0
 30
0.0
 11
434.6786007476034
 21
-18.5
 31
0.0
  0
LINE
  5
1C6
330
17
100
AcDbEntity
  8
ANCON-BOLT
100
AcDbLine
 10
420.6786007476035
 20
0.0
 30
0.0
 11
420.6786007476035
 21
-18.5
 31
0.0
  0
LINE
  5
1C7
330
17
100
AcDbEntity
  8
ANCON-STRUC
100
AcDbLine
 10
552.6786007476034
 20
0.0
 30
0.0
 11
552.6786007476034
 21
-140.0
 31
0.0
  0
LINE
  5
1C8
330
17
100
AcDbEntity
  8
ANCON-BOLT
100
AcDbLine
 10
552.6786007476034
 20
-93.0
 30
0.0
 11
534.1786007476034
 21
-93.0
 31
0.0
  0
LINE
  5
1C9
330
17
100
AcDbEntity
  8
ANCON-BOLT
100
AcDbLine
 10
552.6786007476034
 20
-107.0
 30
0.0
 11
534.1786007476034
 21
-107.0
 31
0.0
  0
LINE
  5
1CA
330
17
100
AcDbEntity
  8
ANCON-BOLT
100
AcDbLine
 10
420.6786007476035
 20
-37.5
 30
0.0
 11
420.6786007476035
 21
-71.5
 31
0.0
  0
LINE
  5
1CB
330
17
100
AcDbEntity
  8
ANCON-BOLT
100
AcDbLine
 10
434.6786007476034
 20
-37.5
 30
0.0
 11
434.6786007476034
 21
-71.5
 31
0.0
  0
LINE
  5
1CC
330
17
100
AcDbEntity
  8
ANCON-BOLT
100
AcDbLine
 10
426.6786007476034
 20
-37.5
 30
0.0
 11
426.6786007476034
 21
-71.5
 31
0.0
  0
LINE
  5
1CD
330
17
100
AcDbEntity
  8
ANCON-BOLT
100
AcDbLine
 10
428.6786007476035
 20
-37.5
 30
0.0
 11
428.6786007476035
 21
-71.5
 31
0.0
  0
LINE
  5
1CE
330
17
100
AcDbEntity
  8
ANCON-BOLT
100
AcDbLine
 10
428.6786007476035
 20
-71.5
 30
0.0
 11
434.6786007476034
 21
-71.5
 31
0.0
  0
LINE
  5
1CF
330
17
100
AcDbEntity
  8
ANCON-BOLT
100
AcDbLine
 10
427.6786007476034
 20
-76.10000000000013
 30
0.0
 11
434.2842178977165
 21
-76.10000000000002
 31
0.0
  0
LINE
  5
1D0
330
17
100
AcDbEntity
  8
ANCON-BOLT
100
AcDbLine
 10
427.6786007476036
 20
-75.50000000000011
 30
0.0
 11
434.2842178977161
 21
-75.5
 31
0.0
  0
LINE
  5
1D1
330
17
100
AcDbEntity
  8
ANCON-BOLT
100
AcDbLine
 10
427.6786007476034
 20
-76.5
 30
0.0
 11
433.8842178977166
 21
-76.5
 31
0.0
  0
LINE
  5
1D2
330
17
100
AcDbEntity
  8
ANCON-BOLT
100
AcDbLine
 10
432.4877689657878
 20
-77.79860626563834
 30
0.0
 11
431.2352689657878
 21
-79.05110626563828
 31
0.0
  0
LINE
  5
1D3
330
17
100
AcDbEntity
  8
ANCON-BOLT
100
AcDbLine
 10
422.9195209918487
 20
-77.79860626563834
 30
0.0
 11
432.4877689657878
 21
-77.79860626563834
 31
0.0
  0
LINE
  5
1D4
330
17
100
AcDbEntity
  8
ANCON-BOLT
100
AcDbLine
 10
421.0729835974909
 20
-75.50000000000011
 30
0.0
 11
421.4229382515945
 21
-71.5
 31
0.0
  0
LINE
  5
1D5
330
17
100
AcDbEntity
  8
ANCON-BOLT
100
AcDbLine
 10
427.6786007476034
 20
-75.50000000000011
 30
0.0
 11
421.0729835974909
 21
-75.5
 31
0.0
  0
LINE
  5
1D6
330
17
100
AcDbEntity
  8
ANCON-BOLT
100
AcDbLine
 10
427.6786007476036
 20
-76.10000000000013
 30
0.0
 11
421.0729835974905
 21
-76.10000000000002
 31
0.0
  0
LINE
  5
1D7
330
17
100
AcDbEntity
  8
ANCON-BOLT
100
AcDbLine
 10
427.6786007476036
 20
-76.5
 30
0.0
 11
421.4729835974903
 21
-76.5
 31
0.0
  0
LINE
  5
1D8
330
17
100
AcDbEntity
  8
ANCON-BOLT
100
AcDbLine
 10
422.9195209918487
 20
-77.79860626563834
 30
0.0
 11
424.1720209918488
 21
-79.05110626563828
 31
0.0
  0
LINE
  5
1D9
330
17
100
AcDbEntity
  8
ANCON-BOLT
100
AcDbLine
 10
421.0729835974905
 20
-75.5
 30
0.0
 11
421.0729835974905
 21
-76.10000000000002
 31
0.0
  0
LINE
  5
1DA
330
17
100
AcDbEntity
  8
ANCON-BOLT
100
AcDbLine
 10
421.4729835974905
 20
-76.5
 30
0.0
 11
421.0729835974905
 21
-76.10000000000002
 31
0.0
  0
LINE
  5
1DB
330
17
100
AcDbEntity
  8
ANCON-BOLT
100
AcDbLine
 10
422.9195209918487
 20
-76.5
 30
0.0
 11
422.9195209918487
 21
-77.79860626563834
 31
0.0
  0
LINE
  5
1DC
330
17
100
AcDbEntity
  8
ANCON-BOLT
100
AcDbLine
 10
431.2352689657878
 20
-79.05110626563828
 30
0.0
 11
424.1720209918487
 21
-79.05110626563828
 31
0.0
  0
LINE
  5
1DD
330
17
100
AcDbEntity
  8
ANCON-BOLT
100
AcDbLine
 10
431.2352689657878
 20
-76.5
 30
0.0
 11
431.2352689657878
 21
-79.05110626563828
 31
0.0
  0
LINE
  5
1DE
330
17
100
AcDbEntity
  8
ANCON-BOLT
100
AcDbLine
 10
424.1720209918488
 20
-76.5
 30
0.0
 11
424.1720209918488
 21
-79.05110626563828
 31
0.0
  0
LINE
  5
1DF
330
17
100
AcDbEntity
  8
ANCON-BOLT
100
AcDbLine
 10
420.6786007476035
 20
-71.5
 30
0.0
 11
426.6786007476034
 21
-71.5
 31
0.0
  0
LINE
  5
1E0
330
17
100
AcDbEntity
  8
ANCON-BOLT
100
AcDbLine
 10
426.6786007476034
 20
-65.5
 30
0.0
 11
428.6786007476035
 21
-65.5
 31
0.0
  0
LINE
  5
1E1
330
17
100
AcDbEntity
  8
ANCON-BOLT
100
AcDbLine
 10
434.2842178977161
 20
-75.50000000000011
 30
0.0
 11
433.9342632436125
 21
-71.5
 31
0.0
  0
LINE
  5
1E2
330
17
100
AcDbEntity
  8
ANCON-BOLT
100
AcDbLine
 10
434.2842178977165
 20
-75.5
 30
0.0
 11
434.2842178977165
 21
-76.10000000000002
 31
0.0
  0
LINE
  5
1E3
330
17
100
AcDbEntity
  8
ANCON-BOLT
100
AcDbLine
 10
433.8842178977166
 20
-76.5
 30
0.0
 11
434.2842178977165
 21
-76.10000000000002
 31
0.0
  0
LINE
  5
1E4
330
17
100
AcDbEntity
  8
ANCON-BOLT
100
AcDbLine
 10
432.4877689657878
 20
-76.5
 30
0.0
 11
432.4877689657878
 21
-77.79860626563834
 31
0.0
  0
LINE
  5
1E5
330
17
100
AcDbEntity
  8
ANCON-BOLT
100
AcDbLine
 10
420.6786007476035
 20
-18.5
 30
0.0
 11
434.6786007476034
 21
-18.5
 31
0.0
  0
LINE
  5
1E6
330
17
100
AcDbEntity
  8
ANCON-BOLT
100
AcDbLine
 10
420.6786007476035
 20
-20.0
 30
0.0
 11
434.6786007476034
 21
-20.0
 31
0.0
  0
LINE
  5
1E7
330
17
100
AcDbEntity
  8
ANCON-BOLT
100
AcDbLine
 10
428.6786007476035
 20
-37.5
 30
0.0
 11
434.6786007476034
 21
-37.5
 31
0.0
  0
LINE
  5
1E8
330
17
100
AcDbEntity
  8
ANCON-BOLT
100
AcDbLine
 10
420.6786007476035
 20
-28.5
 30
0.0
 11
434.6786007476034
 21
-28.5
 31
0.0
  0
LINE
  5
1E9
330
17
100
AcDbEntity
  8
ANCON-BOLT
100
AcDbLine
 10
422.1786007476034
 20
-37.5
 30
0.0
 11
420.6786007476035
 21
-28.5
 31
0.0
  0
LINE
  5
1EA
330
17
100
AcDbEntity
  8
ANCON-BOLT
100
AcDbLine
 10
420.6786007476035
 20
-37.5
 30
0.0
 11
426.6786007476034
 21
-37.5
 31
0.0
  0
LINE
  5
1EB
330
17
100
AcDbEntity
  8
ANCON-BOLT
100
AcDbLine
 10
426.6786007476034
 20
-40.49999999999999
 30
0.0
 11
428.6786007476035
 21
-40.49999999999999
 31
0.0
  0
LINE
  5
1EC
330
17
100
AcDbEntity
  8
ANCON-BOLT
100
AcDbLine
 10
420.6786007476035
 20
-20.0
 30
0.0
 11
420.6786007476035
 21
-28.5
 31
0.0
  0
ARC
  5
1ED
330
17
100
AcDbEntity
  8
ANCON-BOLT
100
AcDbCircle
 10
419.761492561255
 20
-19.25
 30
0.0
 40
1.184730950666545
100
AcDbArc
 50
320.7241144794068
 51
39.27588552058948
  0
LINE
  5
1EE
330
17
100
AcDbEntity
  8
ANCON-BOLT
100
AcDbLine
 10
433.1786007476035
 20
-37.5
 30
0.0
 11
434.6786007476034
 21
-28.5
 31
0.0
  0
LINE
  5
1EF
330
17
100
AcDbEntity
  8
ANCON-BOLT
100
AcDbLine
 10
434.6786007476034
 20
-20.0
 30
0.0
 11
434.6786007476034
 21
-28.5
 31
0.0
  0
ARC
  5
1F0
330
17
100
AcDbEntity
  8
ANCON-BOLT
100
AcDbCircle
 10
435.5957089339518
 20
-19.25
 30
0.0
 40
1.184730950666545
100
AcDbArc
 50
140.7241144794104
 51
219.2758855205931
  0
LINE
  5
1F1
330
17
100
AcDbEntity
  8
ANCON-BOLT
100
AcDbLine
 10
515.1786007476034
 20
-107.0
 30
0.0
 11
481.1786007476034
 21
-107.0
 31
0.0
  0
LINE
  5
1F2
330
17
100
AcDbEntity
  8
ANCON-BOLT
100
AcDbLine
 10
515.1786007476034
 20
-93.0
 30
0.0
 11
481.1786007476034
 21
-93.0
 31
0.0
  0
LINE
  5
1F3
330
17
100
AcDbEntity
  8
ANCON-BOLT
100
AcDbLine
 10
515.1786007476034
 20
-101.0
 30
0.0
 11
481.1786007476034
 21
-101.0
 31
0.0
  0
LINE
  5
1F4
330
17
100
AcDbEntity
  8
ANCON-BOLT
100
AcDbLine
 10
515.1786007476034
 20
-99.0
 30
0.0
 11
481.1786007476034
 21
-99.0
 31
0.0
  0
LINE
  5
1F5
330
17
100
AcDbEntity
  8
ANCON-BOLT
100
AcDbLine
 10
481.1786007476034
 20
-99.0
 30
0.0
 11
481.1786007476034
 21
-93.0
 31
0.0
  0
LINE
  5
1F6
330
17
100
AcDbEntity
  8
ANCON-BOLT
100
AcDbLine
 10
473.6274944819651
 20
-96.44333178181557
 30
0.0
 11
473.6274944819651
 21
-103.5065797557547
 31
0.0
  0
LINE
  5
1F7
330
17
100
AcDbEntity
  8
ANCON-BOLT
100
AcDbLine
 10
474.879994481965
 20
-104.7590797557546
 30
0.0
 11
474.879994481965
 21
-95.19083178181563
 31
0.0
  0
LINE
  5
1F8
330
17
100
AcDbEntity
  8
ANCON-BOLT
100
AcDbLine
 10
476.5786007476033
 20
-100.0
 30
0.0
 11
476.5786007476034
 21
-93.39438284988693
 31
0.0
  0
LINE
  5
1F9
330
17
100
AcDbEntity
  8
ANCON-BOLT
100
AcDbLine
 10
477.1786007476033
 20
-99.99999999999989
 30
0.0
 11
477.1786007476034
 21
-93.39438284988739
 31
0.0
  0
LINE
  5
1FA
330
17
100
AcDbEntity
  8
ANCON-BOLT
100
AcDbLine
 10
476.1786007476034
 20
-100.0
 30
0.0
 11
476.1786007476034
 21
-93.7943828498868
 31
0.0
  0
LINE
  5
1FB
330
17
100
AcDbEntity
  8
ANCON-BOLT
100
AcDbLine
 10
477.1786007476034
 20
-106.6056171501129
 30
0.0
 11
476.5786007476034
 21
-106.6056171501129
 31
0.0
  0
LINE
  5
1FC
330
17
100
AcDbEntity
  8
ANCON-BOLT
100
AcDbLine
 10
476.1786007476034
 20
-106.2056171501129
 30
0.0
 11
476.5786007476034
 21
-106.6056171501129
 31
0.0
  0
LINE
  5
1FD
330
17
100
AcDbEntity
  8
ANCON-BOLT
100
AcDbLine
 10
476.1786007476034
 20
-104.7590797557546
 30
0.0
 11
474.879994481965
 21
-104.7590797557546
 31
0.0
  0
LINE
  5
1FE
330
17
100
AcDbEntity
  8
ANCON-BOLT
100
AcDbLine
 10
476.1786007476034
 20
-103.5065797557546
 30
0.0
 11
473.6274944819651
 21
-103.5065797557546
 31
0.0
  0
LINE
  5
1FF
330
17
100
AcDbEntity
  8
ANCON-BOLT
100
AcDbLine
 10
476.5786007476033
 20
-99.99999999999989
 30
0.0
 11
476.5786007476034
 21
-106.6056171501129
 31
0.0
  0
LINE
  5
200
330
17
100
AcDbEntity
  8
ANCON-BOLT
100
AcDbLine
 10
476.1786007476034
 20
-99.99999999999989
 30
0.0
 11
476.1786007476034
 21
-106.205617150113
 31
0.0
  0
LINE
  5
201
330
17
100
AcDbEntity
  8
ANCON-BOLT
100
AcDbLine
 10
474.879994481965
 20
-104.7590797557546
 30
0.0
 11
473.6274944819651
 21
-103.5065797557546
 31
0.0
  0
LINE
  5
202
330
17
100
AcDbEntity
  8
ANCON-BOLT
100
AcDbLine
 10
481.1786007476034
 20
-107.0
 30
0.0
 11
481.1786007476034
 21
-101.0
 31
0.0
  0
LINE
  5
203
330
17
100
AcDbEntity
  8
ANCON-BOLT
100
AcDbLine
 10
477.1786007476033
 20
-100.0
 30
0.0
 11
477.1786007476034
 21
-106.6056171501124
 31
0.0
  0
LINE
  5
204
330
17
100
AcDbEntity
  8
ANCON-BOLT
100
AcDbLine
 10
477.1786007476033
 20
-106.6056171501124
 30
0.0
 11
481.1786007476034
 21
-106.2556624960088
 31
0.0
  0
LINE
  5
205
330
17
100
AcDbEntity
  8
ANCON-BOLT
100
AcDbLine
 10
477.1786007476034
 20
-93.39438284988693
 30
0.0
 11
476.5786007476034
 21
-93.39438284988693
 31
0.0
  0
LINE
  5
206
330
17
100
AcDbEntity
  8
ANCON-BOLT
100
AcDbLine
 10
476.1786007476034
 20
-93.79438284988692
 30
0.0
 11
476.5786007476034
 21
-93.39438284988693
 31
0.0
  0
LINE
  5
207
330
17
100
AcDbEntity
  8
ANCON-BOLT
100
AcDbLine
 10
476.1786007476034
 20
-95.19083178181563
 30
0.0
 11
474.879994481965
 21
-95.19083178181563
 31
0.0
  0
LINE
  5
208
330
17
100
AcDbEntity
  8
ANCON-BOLT
100
AcDbLine
 10
476.1786007476034
 20
-96.44333178181557
 30
0.0
 11
473.6274944819651
 21
-96.44333178181557
 31
0.0
  0
LINE
  5
209
330
17
100
AcDbEntity
  8
ANCON-BOLT
100
AcDbLine
 10
474.879994481965
 20
-95.19083178181563
 30
0.0
 11
473.6274944819651
 21
-96.44333178181557
 31
0.0
  0
LINE
  5
20A
330
17
100
AcDbEntity
  8
ANCON-BOLT
100
AcDbLine
 10
477.1786007476033
 20
-93.39438284988739
 30
0.0
 11
481.1786007476034
 21
-93.744337503991
 31
0.0
  0
LINE
  5
20B
330
17
100
AcDbEntity
  8
ANCON-BOLT
100
AcDbLine
 10
487.1786007476035
 20
-101.0
 30
0.0
 11
487.1786007476035
 21
-99.0
 31
0.0
  0
LINE
  5
20C
330
17
100
AcDbEntity
  8
ANCON-BOLT
100
AcDbLine
 10
515.1786007476034
 20
-105.4999999999999
 30
0.0
 11
524.1786007476035
 21
-107.0
 31
0.0
  0
LINE
  5
20D
330
17
100
AcDbEntity
  8
ANCON-BOLT
100
AcDbLine
 10
515.1786007476034
 20
-94.50000000000001
 30
0.0
 11
524.1786007476035
 21
-93.0
 31
0.0
  0
LINE
  5
20E
330
17
100
AcDbEntity
  8
ANCON-BOLT
100
AcDbLine
 10
515.1786007476034
 20
-99.0
 30
0.0
 11
515.1786007476034
 21
-93.0
 31
0.0
  0
LINE
  5
20F
330
17
100
AcDbEntity
  8
ANCON-BOLT
100
AcDbLine
 10
512.1786007476035
 20
-101.0
 30
0.0
 11
512.1786007476035
 21
-99.0
 31
0.0
  0
LINE
  5
210
330
17
100
AcDbEntity
  8
ANCON-BOLT
100
AcDbLine
 10
515.1786007476034
 20
-107.0
 30
0.0
 11
515.1786007476034
 21
-101.0
 31
0.0
  0
LINE
  5
211
330
17
100
AcDbEntity
  8
ANCON-BOLT
100
AcDbLine
 10
534.1786007476034
 20
-107.0
 30
0.0
 11
534.1786007476034
 21
-93.0
 31
0.0
  0
LINE
  5
212
330
17
100
AcDbEntity
  8
ANCON-BOLT
100
AcDbLine
 10
532.6786007476035
 20
-107.0
 30
0.0
 11
532.6786007476035
 21
-93.0
 31
0.0
  0
LINE
  5
213
330
17
100
AcDbEntity
  8
ANCON-BOLT
100
AcDbLine
 10
524.1786007476035
 20
-107.0
 30
0.0
 11
524.1786007476035
 21
-93.0
 31
0.0
  0
LINE
  5
214
330
17
100
AcDbEntity
  8
ANCON-BOLT
100
AcDbLine
 10
532.6786007476035
 20
-107.0
 30
0.0
 11
524.1786007476035
 21
-107.0
 31
0.0
  0
ARC
  5
215
330
17
100
AcDbEntity
  8
ANCON-BOLT
100
AcDbCircle
 10
533.4286007476034
 20
-107.9171081863484
 30
0.0
 40
1.184730950666545
100
AcDbArc
 50
50.72411447941051
 51
129.2758855205931
  0
LINE
  5
216
330
17
100
AcDbEntity
  8
ANCON-BOLT
100
AcDbLine
 10
532.6786007476035
 20
-93.0
 30
0.0
 11
524.1786007476035
 21
-93.0
 31
0.0
  0
ARC
  5
217
330
17
100
AcDbEntity
  8
ANCON-BOLT
100
AcDbCircle
 10
533.4286007476034
 20
-92.08289181365159
 30
0.0
 40
1.184730950666545
100
AcDbArc
 50
230.7241144794068
 51
309.2758855205894
  0
LINE
  5
218
330
17
100
AcDbEntity
  8
ANCON-BOLT
100
AcDbLine
 10
560.6786007476034
 20
-110.4999999999997
 30
0.0
 11
560.6786007476034
 21
-89.49999999999977
 31
0.0
  0
LINE
  5
219
330
17
100
AcDbEntity
  8
ANCON-BOLT
100
AcDbLine
 10
560.678600747603
 20
-114.9999999999997
 30
0.0
 11
560.678600747603
 21
-84.99999999999976
 31
0.0
  0
LINE
  5
21A
330
17
100
AcDbEntity
  8
ANCON-BOLT
100
AcDbLine
 10
558.6786007476034
 20
-114.9999999999997
 30
0.0
 11
558.6786007476034
 21
-84.99999999999976
 31
0.0
  0
LINE
  5
21B
330
17
100
AcDbEntity
  8
ANCON-WINDPOST
100
AcDbLine
 10
558.6786007476034
 20
-124.9999999999997
 30
0.0
 11
552.6786007476034
 21
-124.9999999999997
 31
0.0
  0
LINE
  5
21C
330
17
100
AcDbEntity
  8
ANCON-BOLT
100
AcDbLine
 10
558.6786007476034
 20
-114.9999999999997
 30
0.0
 11
560.678600747603
 21
-114.9999999999997
 31
0.0
  0
ARC
  5
21D
330
17
100
AcDbEntity
  8
ANCON-BOLT
100
AcDbCircle
 10
558.5813351226035
 20
-99.99999999999978
 30
0.0
 40
8.097265624999911
100
AcDbArc
 50
327.7391653073663
 51
32.26083469263363
  0
LINE
  5
21E
330
17
100
AcDbEntity
  8
ANCON-BOLT
100
AcDbLine
 10
566.6786007476035
 20
-106.4891816895906
 30
0.0
 11
566.6786007476035
 21
-93.51081831040914
 31
0.0
  0
LINE
  5
21F
330
17
100
AcDbEntity
  8
ANCON-BOLT
100
AcDbLine
 10
560.6786007476034
 20
-108.65625
 30
0.0
 11
560.6786007476034
 21
-91.34375
 31
0.0
  0
LINE
  5
220
330
17
100
AcDbEntity
  8
ANCON-BOLT
100
AcDbLine
 10
560.6786007476034
 20
-108.65625
 30
0.0
 11
565.428600747604
 21
-108.65625
 31
0.0
  0
LINE
  5
221
330
17
100
AcDbEntity
  8
ANCON-BOLT
100
AcDbLine
 10
560.6786007476034
 20
-104.3221133791812
 30
0.0
 11
565.4286007476038
 21
-104.3221133791812
 31
0.0
  0
ARC
  5
222
330
17
100
AcDbEntity
  8
ANCON-BOLT
100
AcDbCircle
 10
564.175126722811
 20
-106.4891816895905
 30
0.0
 40
2.503474024792331
100
AcDbArc
 50
300.0459147637402
 51
59.95408523625298
  0
LINE
  5
223
330
17
100
AcDbEntity
  8
ANCON-BOLT
100
AcDbLine
 10
560.6786007476034
 20
-95.67788662081829
 30
0.0
 11
565.4286007476039
 21
-95.67788662081829
 31
0.0
  0
LINE
  5
224
330
17
100
AcDbEntity
  8
ANCON-BOLT
100
AcDbLine
 10
560.6786007476034
 20
-91.34375
 30
0.0
 11
565.4286007476034
 21
-91.34375
 31
0.0
  0
ARC
  5
225
330
17
100
AcDbEntity
  8
ANCON-BOLT
100
AcDbCircle
 10
564.1751267228115
 20
-93.51081831040927
 30
0.0
 40
2.503474024792002
100
AcDbArc
 50
300.0459147637483
 51
59.95408523626386
  0
LINE
  5
226
330
17
100
AcDbEntity
  8
ANCON-BOLT
100
AcDbLine
 10
558.6786007476034
 20
-84.99999999999976
 30
0.0
 11
560.678600747603
 21
-84.99999999999976
 31
0.0
  0
LINE
  5
227
330
17
100
AcDbEntity
  8
ANCON-MASONRY
100
AcDbLine
 10
436.3348507476034
 20
10.0
 30
0.0
 11
552.6786007476034
 21
10.0
 31
0.0
  0
LINE
  5
228
330
17
100
AcDbEntity
  8
ANCON-WINDPOST
100
AcDbLine
 10
382.6786007476036
 20
6.0
 30
0.0
 11
633.0562333193626
 21
6.0
 31
0.0
  0
LINE
  5
229
330
17
100
AcDbEntity
  8
ANCON-WINDPOST
100
AcDbLine
 10
382.6786007476036
 20
0.0
 30
0.0
 11
633.0562333193626
 21
0.0
 31
0.0
  0
LINE
  5
22A
330
17
100
AcDbEntity
  8
ANCON-STRUC
100
AcDbLine
 10
552.6786007476034
 20
0.0
 30
0.0
 11
368.5760184027
 21
0.0
 31
0.0
  0
LINE
  5
22C
330
17
100
AcDbEntity
  8
ANCON-MASONRY
100
AcDbLine
 10
412.6786007476034
 20
225.0000000000001
 30
0.0
 11
412.6786007476034
 21
10.0
 31
0.0
  0
LINE
  5
22D
330
17
100
AcDbEntity
  8
ANCON-WINDPOST
100
AcDbLine
 10
382.6786007476036
 20
6.0
 30
0.0
 11
382.6786007476036
 21
0.0
 31
0.0
  0
LINE
  5
22E
330
17
100
AcDbEntity
  8
ANCON-BOLT
100
AcDbLine
 10
421.1894190580128
 20
14.0
 30
0.0
 11
434.1677824371942
 21
14.0
 31
0.0
  0
LINE
  5
22F
330
17
100
AcDbEntity
  8
ANCON-BOLT
100
AcDbLine
 10
412.6786007476036
 20
7.999999999999658
 30
0.0
 11
442.6786007476037
 21
7.999999999999545
 31
0.0
  0
LINE
  5
230
330
17
100
AcDbEntity
  8
ANCON-BOLT
100
AcDbLine
 10
412.6786007476036
 20
6.0
 30
0.0
 11
442.6786007476037
 21
6.0
 31
0.0
  0
ARC
  5
231
330
17
100
AcDbEntity
  8
ANCON-BOLT
100
AcDbCircle
 10
434.1677824371942
 20
11.4965259752081
 30
0.0
 40
2.503474024792002
100
AcDbArc
 50
30.04591476373614
 51
149.9540852362516
  0
LINE
  5
232
330
17
100
AcDbEntity
  8
ANCON-BOLT
100
AcDbLine
 10
417.1786007476036
 20
8.0
 30
0.0
 11
438.1786007476036
 21
8.0
 31
0.0
  0
LINE
  5
233
330
17
100
AcDbEntity
  8
ANCON-BOLT
100
AcDbLine
 10
419.0223507476035
 20
8.0
 30
0.0
 11
436.3348507476034
 21
8.0
 31
0.0
  0
LINE
  5
234
330
17
100
AcDbEntity
  8
ANCON-BOLT
100
AcDbLine
 10
419.0223507476035
 20
8.0
 30
0.0
 11
419.0223507476035
 21
12.75000000000056
 31
0.0
  0
LINE
  5
235
330
17
100
AcDbEntity
  8
ANCON-BOLT
100
AcDbLine
 10
423.3564873684222
 20
8.0
 30
0.0
 11
423.3564873684222
 21
12.75000000000034
 31
0.0
  0
LINE
  5
236
330
17
100
AcDbEntity
  8
ANCON-BOLT
100
AcDbLine
 10
432.0007141267852
 20
8.0
 30
0.0
 11
432.0007141267852
 21
12.75000000000045
 31
0.0
  0
LINE
  5
237
330
17
100
AcDbEntity
  8
ANCON-MASONRY
100
AcDbLine
 10
412.6786007476034
 20
10.0
 30
0.0
 11
419.0223507476035
 21
10.0
 31
0.0
  0
LINE
  5
238
330
17
100
AcDbEntity
  8
ANCON-BOLT
100
AcDbLine
 10
412.6786007476036
 20
6.0
 30
0.0
 11
412.6786007476036
 21
7.999999999999658
 31
0.0
  0
ARC
  5
239
330
17
100
AcDbEntity
  8
ANCON-BOLT
100
AcDbCircle
 10
427.6786007476037
 20
5.902734375000136
 30
0.0
 40
8.097265624999911
100
AcDbArc
 50
57.73916530736636
 51
122.2608346926336
  0
ARC
  5
23A
330
17
100
AcDbEntity
  8
ANCON-BOLT
100
AcDbCircle
 10
421.1894190580129
 20
11.49652597520764
 30
0.0
 40
2.503474024792331
100
AcDbArc
 50
30.04591476374701
 51
149.9540852362597
  0
LINE
  5
23B
330
17
100
AcDbEntity
  8
ANCON-BOLT
100
AcDbLine
 10
436.3348507476034
 20
8.0
 30
0.0
 11
436.3348507476034
 21
12.75
 31
0.0
  0
LINE
  5
23C
330
17
100
AcDbEntity
  8
ANCON-BOLT
100
AcDbLine
 10
442.6786007476037
 20
6.0
 30
0.0
 11
442.6786007476037
 21
7.999999999999545
 31
0.0
  0
LINE
  5
23D
330
17
100
AcDbEntity
  8
ANCON-MASONRY
100
AcDbLine
 10
552.6786007476034
 20
225.0000000000001
 30
0.0
 11
552.6786007476034
 21
10.0
 31
0.0
  0
LINE
  5
23F
330
17
100
AcDbEntity
  8
ANCON-WINDPOST
100
AcDbLine
 10
633.0562333193626
 20
6.0
 30
0.0
 11
633.0562333193626
 21
0.0
 31
0.0
  0
LINE
  5
240
330
17
100
AcDbEntity
  8
ANCON-MASONRY
100
AcDbLine
 10
412.6786007476034
 20
235.0
 30
0.0
 11
552.6786007476034
 21
235.0
 31
0.0
  0
LINE
  5
241
330
17
100
AcDbEntity
  8
ANCON-MASONRY
100
AcDbLine
 10
412.6786007476034
 20
225.0000000000001
 30
0.0
 11
552.6786007476034
 21
225.0000000000001
 31
0.0
  0
LINE
  5
243
330
17
100
AcDbEntity
  8
ANCON-TIE
100
AcDbLine
 10
471.1786007476035
 20
231.2499999999999
 30
0.0
 11
573.1754707473004
 21
231.2499999999999
 31
0.0
  0
LINE
  5
244
330
17
100
AcDbEntity
  8
ANCON-TIE
100
AcDbLine
 10
471.1786007476035
 20
228.7499999999998
 30
0.0
 11
573.1754707473004
 21
228.7499999999998
 31
0.0
  0
LINE
  5
24A
330
17
100
AcDbEntity
  8
ANCON-MASONRY
100
AcDbLine
 10
552.6786007476034
 20
300.0000000000001
 30
0.0
 11
552.6786007476034
 21
235.0
 31
0.0
  0
LINE
  5
256
330
17
100
AcDbEntity
  8
ANCON-MASONRY
100
AcDbLine
 10
412.6786007476034
 20
300.0000000000001
 30
0.0
 11
412.6786007476034
 21
235.0
 31
0.0
  0
LINE
  5
257
330
17
100
AcDbEntity
  8
ANCON-MASONRY
100
AcDbLine
 10
755.1786007476034
 20
0.0
 30
0.0
 11
755.1786007476034
 21
-65.0
 31
0.0
  0
LINE
  5
258
330
17
100
AcDbEntity
  8
ANCON-MASONRY
100
AcDbLine
 10
652.6786007476034
 20
0.0
 30
0.0
 11
652.6786007476034
 21
-65.0
 31
0.0
  0
LINE
  5
259
330
17
100
AcDbEntity
  8
ANCON-MASONRY
100
AcDbLine
 10
652.6786007476034
 20
-75.0
 30
0.0
 11
755.1786007476034
 21
-75.0
 31
0.0
  0
LINE
  5
25A
330
17
100
AcDbEntity
  8
ANCON-MASONRY
100
AcDbLine
 10
652.6786007476034
 20
-65.0
 30
0.0
 11
755.1786007476034
 21
-65.0
 31
0.0
  0
LINE
  5
25B
330
17
100
AcDbEntity
  8
ANCON-MASONRY
100
AcDbLine
 10
652.6786007476034
 20
-75.0
 30
0.0
 11
652.6786007476034
 21
-140.0
 31
0.0
  0
LINE
  5
25C
330
17
100
AcDbEntity
  8
ANCON-MASONRY
100
AcDbLine
 10
755.1786007476034
 20
-75.0
 30
0.0
 11
755.1786007476034
 21
-140.0
 31
0.0
  0
LINE
  5
25D
330
17
100
AcDbEntity
  8
ANCON-MASONRY
100
AcDbLine
 10
755.1786007476034
 20
225.0000000000001
 30
0.0
 11
755.1786007476034
 21
160.0000000000001
 31
0.0
  0
LINE
  5
25E
330
17
100
AcDbEntity
  8
ANCON-MASONRY
100
AcDbLine
 10
652.6786007476034
 20
225.0000000000001
 30
0.0
 11
652.6786007476034
 21
160.0000000000001
 31
0.0
  0
LINE
  5
25F
330
17
100
AcDbEntity
  8
ANCON-MASONRY
100
AcDbLine
 10
652.6786007476034
 20
160.0000000000001
 30
0.0
 11
755.1786007476034
 21
160.0000000000001
 31
0.0
  0
LINE
  5
260
330
17
100
AcDbEntity
  8
ANCON-MASONRY
100
AcDbLine
 10
652.6786007476034
 20
85.0
 30
0.0
 11
755.1786007476034
 21
85.0
 31
0.0
  0
LINE
  5
261
330
17
100
AcDbEntity
  8
ANCON-MASONRY
100
AcDbLine
 10
652.6786007476034
 20
150.0000000000001
 30
0.0
 11
755.1786007476034
 21
150.0000000000001
 31
0.0
  0
LINE
  5
262
330
17
100
AcDbEntity
  8
ANCON-MASONRY
100
AcDbLine
 10
652.6786007476034
 20
10.0
 30
0.0
 11
755.1786007476034
 21
10.0
 31
0.0
  0
LINE
  5
263
330
17
100
AcDbEntity
  8
ANCON-MASONRY
100
AcDbLine
 10
652.6786007476034
 20
75.0
 30
0.0
 11
755.1786007476034
 21
75.0
 31
0.0
  0
LINE
  5
264
330
17
100
AcDbEntity
  8
ANCON-MASONRY
100
AcDbLine
 10
652.6786007476034
 20
0.0
 30
0.0
 11
755.1786007476034
 21
0.0
 31
0.0
  0
LINE
  5
265
330
17
100
AcDbEntity
  8
ANCON-MASONRY
100
AcDbLine
 10
652.6786007476034
 20
150.0000000000001
 30
0.0
 11
652.6786007476034
 21
85.0
 31
0.0
  0
LINE
  5
266
330
17
100
AcDbEntity
  8
ANCON-MASONRY
100
AcDbLine
 10
652.6786007476034
 20
75.0
 30
0.0
 11
652.6786007476034
 21
10.0
 31
0.0
  0
LINE
  5
267
330
17
100
AcDbEntity
  8
ANCON-MASONRY
100
AcDbLine
 10
755.1786007476034
 20
150.0000000000001
 30
0.0
 11
755.1786007476034
 21
85.0
 31
0.0
  0
LINE
  5
268
330
17
100
AcDbEntity
  8
ANCON-MASONRY
100
AcDbLine
 10
755.1786007476034
 20
75.0
 30
0.0
 11
755.1786007476034
 21
10.0
 31
0.0
  0
LINE
  5
269
330
17
100
AcDbEntity
  8
ANCON-TIE
100
AcDbLine
 10
633.1754707473005
 20
228.7499999999998
 30
0.0
 11
717.6786007476034
 21
228.75
 31
0.0
  0
LINE
  5
26A
330
17
100
AcDbEntity
  8
ANCON-TIE
100
AcDbLine
 10
633.1754707473005
 20
231.2499999999999
 30
0.0
 11
717.6786007476034
 21
231.2500000000001
 31
0.0
  0
LINE
  5
26B
330
17
100
AcDbEntity
  8
ANCON-MASONRY
100
AcDbLine
 10
652.6786007476034
 20
235.0
 30
0.0
 11
755.1786007476034
 21
235.0
 31
0.0
  0
LINE
  5
26C
330
17
100
AcDbEntity
  8
ANCON-MASONRY
100
AcDbLine
 10
652.6786007476034
 20
225.0000000000001
 30
0.0
 11
755.1786007476034
 21
225.0000000000001
 31
0.0
  0
LINE
  5
26D
330
17
100
AcDbEntity
  8
ANCON-MASONRY
100
AcDbLine
 10
652.6786007476034
 20
300.0000000000001
 30
0.0
 11
652.6786007476034
 21
235.0
 31
0.0
  0
LINE
  5
26E
330
17
100
AcDbEntity
  8
ANCON-MASONRY
100
AcDbLine
 10
755.1786007476034
 20
300.0000000000001
 30
0.0
 11
755.1786007476034
 21
235.0
 31
0.0
  0
LINE
  5
26F
330
17
100
AcDbEntity
  8
ANCON-TIE
100
AcDbLine
 10
717.6786007476034
 20
231.2500000000001
 30
0.0
 11
717.6786007476034
 21
228.75
 31
0.0
  0
LINE
  5
272
330
17
100
AcDbEntity
  8
ANCON-TIE
100
AcDbLine
 10
471.1786007476035
 20
228.7499999999998
 30
0.0
 11
471.1786007476035
 21
231.2499999999999
 31
0.0
  0
LINE
  5
327
330
17
100
AcDbEntity
  8
ANCON-WINDPOST
100
AcDbLine
 10
633.1754707473005
 20
7.368525625878419
 30
0.0
 11
633.1754707473005
 21
312.2142545471936
 31
0.0
  0
LINE
  5
328
330
17
100
AcDbEntity
  8
ANCON-WINDPOST
100
AcDbLine
 10
573.1754707473005
 20
7.368525625878419
 30
0.0
 11
573.1754707473005
 21
312.2142545471936
 31
0.0
  0
LINE
  5
330
330
17
100
AcDbEntity
  8
ANCON-WINDPOST
100
AcDbLine
 10
588.1754707473005
 20
312.2142545471936
 30
0.0
 11
588.1754707473005
 21
6.0
 31
0.0
  0
LINE
  5
331
330
17
100
AcDbEntity
  8
ANCON-WINDPOST
100
AcDbLine
 10
618.1754707473005
 20
312.2142545471936
 30
0.0
 11
618.1754707473005
 21
6.0
 31
0.0
  0
MTEXT
  5
3D4
330
17
100
AcDbEntity
  8
ANCON-TEXT
100
AcDbMText
 10
389.663427635729
 20
-167.8966982198694
 30
0.0
 40
9.0
 41
398.89
 71
     1
 72
     5
  1
WP1 Windpost base
  7
ROMANS
 73
     1
 44
1.0
  0
LINE
  5
471
330
17
100
AcDbEntity
  8
ANCON-WINDPOST
100
AcDbLine
 10
618.1754707473005
 20
6.0
 30
0.0
 11
558.6786007476034
 21
-124.9999999999997
 31
0.0
  0
VIEWPORT
  5
93
330
14
100
AcDbEntity
 67
     1
  8
0
100
AcDbViewport
 10
6.124108416547788
 20
4.5
 30
0.0
 40
12.24821683309557
 41
9.0
 68
     1
 69
     1
 12
6.124108416547788
 22
4.5
 13
0.0
 23
0.0
 14
1.0
 24
1.0
 15
0.0
 25
0.0
 16
0.0
 26
0.0
 36
1.0
 17
0.0
 27
0.0
 37
0.0
 42
50.0
 43
0.0
 44
0.0
 45
9.0
 50
0.0
 51
0.0
 72
   100
 90
    32800
  1

281
     0
 71
     1
 74
     0
110
0.0
120
0.0
130
0.0
111
1.0
121
0.0
131
0.0
112
0.0
122
1.0
132
0.0
 79
     0
146
0.0
  0
ENDSEC
  0
SECTION
  2
OBJECTS
  0
DICTIONARY
  5
C
330
0
100
AcDbDictionary
281
     1
  3
ACAD_GROUP
350
D
  3
ACAD_LAYOUT
350
478
  3
ACAD_MLINESTYLE
350
1A
  3
ACAD_PLOTSETTINGS
350
479
  3
ACAD_PLOTSTYLENAME
350
476
  3
ACDBVARIABLEDICTIONARY
350
3A
  0
DICTIONARY
  5
D
102
{ACAD_REACTORS
330
C
102
}
330
C
100
AcDbDictionary
281
     1
  0
DICTIONARY
  5
478
102
{ACAD_REACTORS
330
C
102
}
330
C
100
AcDbDictionary
281
     1
  3
Layout1
350
47B
  3
Model
350
47A
  0
DICTIONARY
  5
1A
102
{ACAD_REACTORS
330
C
102
}
330
C
100
AcDbDictionary
281
     1
  3
STANDARD
350
1B
  0
DICTIONARY
  5
479
102
{ACAD_REACTORS
330
C
102
}
330
C
100
AcDbDictionary
281
     1
  0
ACDBDICTIONARYWDFLT
  5
476
102
{ACAD_REACTORS
330
C
102
}
330
C
100
AcDbDictionary
281
     1
  3
Normal
350
477
100
AcDbDictionaryWithDefault
340
477
  0
DICTIONARY
  5
3A
102
{ACAD_REACTORS
330
C
102
}
330
C
100
AcDbDictionary
281
     1
  3
DIMADEC
350
3B
  0
LAYOUT
  5
47B
102
{ACAD_REACTORS
330
478
102
}
330
478
100
AcDbPlotSettings
  1

  2
Ancon 2
  4

  6

 40
0.0
 41
0.0
 42
0.0
 43
0.0
 44
0.0
 45
0.0
 46
0.0
 47
0.0
 48
0.0
 49
0.0
140
0.0
141
0.0
142
1.0
143
1.0
 70
   688
 72
     0
 73
     0
 74
     5
  7

 75
    16
147
1.0
148
0.0
149
0.0
100
AcDbLayout
  1
Layout1
 70
     1
 71
     1
 10
0.0
 20
0.0
 11
420.0
 21
297.0
 12
0.0
 22
0.0
 32
0.0
 14
1.000000000000000E+20
 24
1.000000000000000E+20
 34
1.000000000000000E+20
 15
-1.000000000000000E+20
 25
-1.000000000000000E+20
 35
-1.000000000000000E+20
146
0.0
 13
0.0
 23
0.0
 33
0.0
 16
1.0
 26
0.0
 36
0.0
 17
0.0
 27
1.0
 37
0.0
 76
     0
330
14
331
93
  0
LAYOUT
  5
47A
102
{ACAD_REACTORS
330
478
102
}
330
478
100
AcDbPlotSettings
  1

  2
Ancon 2
  4

  6

 40
0.0
 41
0.0
 42
0.0
 43
0.0
 44
0.0
 45
0.0
 46
0.0
 47
0.0
 48
0.0
 49
0.0
140
0.0
141
0.0
142
1.0
143
1.0
 70
  1712
 72
     0
 73
     0
 74
     0
  7

 75
     0
147
1.0
148
0.0
149
0.0
100
AcDbLayout
  1
Model
 70
     1
 71
     0
 10
0.0
 20
0.0
 11
12.0
 21
9.0
 12
0.0
 22
0.0
 32
0.0
 14
0.0
 24
0.0
 34
0.0
 15
0.0
 25
0.0
 35
0.0
146
0.0
 13
0.0
 23
0.0
 33
0.0
 16
1.0
 26
0.0
 36
0.0
 17
0.0
 27
1.0
 37
0.0
 76
     0
330
17
  0
MLINESTYLE
  5
1B
102
{ACAD_REACTORS
330
1A
102
}
330
1A
100
AcDbMlineStyle
  2
STANDARD
 70
     0
  3

 62
   256
 51
90.0
 52
90.0
 71
     2
 49
0.5
 62
   256
  6
BYLAYER
 49
-0.5
 62
   256
  6
BYLAYER
  0
ACDBPLACEHOLDER
  5
477
102
{ACAD_REACTORS
330
476
102
}
330
476
  0
DICTIONARYVAR
  5
3B
102
{ACAD_REACTORS
330
3A
102
}
330
3A
100
DictionaryVariables
280
     0
  1
4
  0
ENDSEC
  0
EOF
