  0
SECTION
  2
HEADER
  9
$ACADVER
  1
AC1015
  9
$ACADMAINTVER
 70
    10
  9
$DWGCODEPAGE
  3
ANSI_1252
  9
$INSBASE
 10
0.0
 20
75.0
 30
0.0
  9
$EXTMIN
 10
-214.5131108685502
 20
-215.0
 30
0.0
  9
$EXTMAX
 10
730.4834434029608
 20
375.0
 30
0.0
  9
$LIMMIN
 10
0.0
 20
0.0
  9
$LIMMAX
 10
420.0
 20
297.0
  9
$ORTHOMODE
 70
     1
  9
$REGENMODE
 70
     1
  9
$FILLMODE
 70
     1
  9
$QTEXTMODE
 70
     0
  9
$MIRRTEXT
 70
     1
  9
$LTSCALE
 40
1.0
  9
$ATTMODE
 70
     1
  9
$TEXTSIZE
 40
9.0
  9
$TRACEWID
 40
10.0
  9
$TEXTSTYLE
  7
ROMANS
  9
$CLAYER
  8
0
  9
$CELTYPE
  6
BYLAYER
  9
$CECOLOR
 62
   256
  9
$CELTSCALE
 40
1.0
  9
$DISPSILH
 70
     0
  9
$DIMSCALE
 40
5.0
  9
$DIMASZ
 40
0.0
  9
$DIMEXO
 40
4.5
  9
$DIMDLI
 40
0.0
  9
$DIMRND
 40
1.0
  9
$DIMDLE
 40
1.25
  9
$DIMEXE
 40
1.5
  9
$DIMTP
 40
0.0
  9
$DIMTM
 40
0.0
  9
$DIMTXT
 40
1.8
  9
$DIMCEN
 40
0.0
  9
$DIMTSZ
 40
1.0
  9
$DIMTOL
 70
     0
  9
$DIMLIM
 70
     0
  9
$DIMTIH
 70
     0
  9
$DIMTOH
 70
     0
  9
$DIMSE1
 70
     0
  9
$DIMSE2
 70
     0
  9
$DIMTAD
 70
     1
  9
$DIMZIN
 70
    12
  9
$DIMBLK
  1

  9
$DIMASO
 70
     1
  9
$DIMSHO
 70
     0
  9
$DIMPOST
  1

  9
$DIMAPOST
  1

  9
$DIMALT
 70
     0
  9
$DIMALTD
 70
     2
  9
$DIMALTF
 40
0.04
  9
$DIMLFAC
 40
1.0
  9
$DIMTOFL
 70
     0
  9
$DIMTVP
 40
0.0
  9
$DIMTIX
 70
     0
  9
$DIMSOXD
 70
     0
  9
$DIMSAH
 70
     0
  9
$DIMBLK1
  1

  9
$DIMBLK2
  1

  9
$DIMSTYLE
  2
1-5
  9
$DIMCLRD
 70
     0
  9
$DIMCLRE
 70
     0
  9
$DIMCLRT
 70
     0
  9
$DIMTFAC
 40
1.25
  9
$DIMGAP
 40
0.1
  9
$DIMJUST
 70
     0
  9
$DIMSD1
 70
     0
  9
$DIMSD2
 70
     0
  9
$DIMTOLJ
 70
     1
  9
$DIMTZIN
 70
    12
  9
$DIMALTZ
 70
    12
  9
$DIMALTTZ
 70
    12
  9
$DIMUPT
 70
     0
  9
$DIMDEC
 70
     2
  9
$DIMTDEC
 70
     2
  9
$DIMALTU
 70
     2
  9
$DIMALTTD
 70
     2
  9
$DIMTXSTY
  7
ROMANS
  9
$DIMAUNIT
 70
     0
  9
$DIMADEC
 70
     0
  9
$DIMALTRND
 40
0.0
  9
$DIMAZIN
 70
     0
  9
$DIMDSEP
 70
    46
  9
$DIMATFIT
 70
     3
  9
$DIMFRAC
 70
     0
  9
$DIMLDRBLK
  1

  9
$DIMLUNIT
 70
     2
  9
$DIMLWD
 70
    -2
  9
$DIMLWE
 70
    -2
  9
$DIMTMOVE
 70
     2
  9
$LUNITS
 70
     2
  9
$LUPREC
 70
     2
  9
$SKETCHINC
 40
1.0
  9
$FILLETRAD
 40
0.0
  9
$AUNITS
 70
     0
  9
$AUPREC
 70
     4
  9
$MENU
  1
C:\ACADWIN\SUPPORT\ACAD
  9
$ELEVATION
 40
0.0
  9
$PELEVATION
 40
0.0
  9
$THICKNESS
 40
0.0
  9
$LIMCHECK
 70
     0
  9
$CHAMFERA
 40
0.0
  9
$CHAMFERB
 40
0.0
  9
$CHAMFERC
 40
0.0
  9
$CHAMFERD
 40
0.0
  9
$SKPOLY
 70
     0
  9
$TDCREATE
 40
2450429.655338657
  9
$TDUCREATE
 40
2450429.613671990
  9
$TDUPDATE
 40
2452487.871841088
  9
$TDUUPDATE
 40
2452487.830174421
  9
$TDINDWG
 40
0.1872381944
  9
$TDUSRTIMER
 40
0.1872381944
  9
$USRTIMER
 70
     1
  9
$ANGBASE
 50
0.0
  9
$ANGDIR
 70
     0
  9
$PDMODE
 70
     0
  9
$PDSIZE
 40
0.0
  9
$PLINEWID
 40
0.0
  9
$SPLFRAME
 70
     0
  9
$SPLINETYPE
 70
     6
  9
$SPLINESEGS
 70
     8
  9
$HANDSEED
  5
2FD
  9
$SURFTAB1
 70
    18
  9
$SURFTAB2
 70
    18
  9
$SURFTYPE
 70
     6
  9
$SURFU
 70
    18
  9
$SURFV
 70
    18
  9
$UCSBASE
  2

  9
$UCSNAME
  2

  9
$UCSORG
 10
0.0
 20
0.0
 30
0.0
  9
$UCSXDIR
 10
1.0
 20
0.0
 30
0.0
  9
$UCSYDIR
 10
0.0
 20
1.0
 30
0.0
  9
$UCSORTHOREF
  2

  9
$UCSORTHOVIEW
 70
     0
  9
$UCSORGTOP
 10
0.0
 20
0.0
 30
0.0
  9
$UCSORGBOTTOM
 10
0.0
 20
0.0
 30
0.0
  9
$UCSORGLEFT
 10
0.0
 20
0.0
 30
0.0
  9
$UCSORGRIGHT
 10
0.0
 20
0.0
 30
0.0
  9
$UCSORGFRONT
 10
0.0
 20
0.0
 30
0.0
  9
$UCSORGBACK
 10
0.0
 20
0.0
 30
0.0
  9
$PUCSBASE
  2

  9
$PUCSNAME
  2

  9
$PUCSORG
 10
0.0
 20
0.0
 30
0.0
  9
$PUCSXDIR
 10
1.0
 20
0.0
 30
0.0
  9
$PUCSYDIR
 10
0.0
 20
1.0
 30
0.0
  9
$PUCSORTHOREF
  2

  9
$PUCSORTHOVIEW
 70
     0
  9
$PUCSORGTOP
 10
0.0
 20
0.0
 30
0.0
  9
$PUCSORGBOTTOM
 10
0.0
 20
0.0
 30
0.0
  9
$PUCSORGLEFT
 10
0.0
 20
0.0
 30
0.0
  9
$PUCSORGRIGHT
 10
0.0
 20
0.0
 30
0.0
  9
$PUCSORGFRONT
 10
0.0
 20
0.0
 30
0.0
  9
$PUCSORGBACK
 10
0.0
 20
0.0
 30
0.0
  9
$USERI1
 70
     0
  9
$USERI2
 70
     0
  9
$USERI3
 70
     0
  9
$USERI4
 70
     0
  9
$USERI5
 70
     0
  9
$USERR1
 40
0.0
  9
$USERR2
 40
0.0
  9
$USERR3
 40
0.0
  9
$USERR4
 40
0.0
  9
$USERR5
 40
0.0
  9
$WORLDVIEW
 70
     1
  9
$SHADEDGE
 70
     3
  9
$SHADEDIF
 70
    70
  9
$TILEMODE
 70
     1
  9
$MAXACTVP
 70
    16
  9
$PINSBASE
 10
0.0
 20
0.0
 30
0.0
  9
$PLIMCHECK
 70
     0
  9
$PEXTMIN
 10
1.000000000000000E+20
 20
1.000000000000000E+20
 30
1.000000000000000E+20
  9
$PEXTMAX
 10
-1.000000000000000E+20
 20
-1.000000000000000E+20
 30
-1.000000000000000E+20
  9
$PLIMMIN
 10
0.0
 20
0.0
  9
$PLIMMAX
 10
420.0
 20
297.0
  9
$UNITMODE
 70
     0
  9
$VISRETAIN
 70
     0
  9
$PLINEGEN
 70
     0
  9
$PSLTSCALE
 70
     1
  9
$TREEDEPTH
 70
  3020
  9
$CMLSTYLE
  2
STANDARD
  9
$CMLJUST
 70
     0
  9
$CMLSCALE
 40
1.0
  9
$PROXYGRAPHICS
 70
     1
  9
$MEASUREMENT
 70
     0
  9
$CELWEIGHT
370
    -1
  9
$ENDCAPS
280
     0
  9
$JOINSTYLE
280
     0
  9
$LWDISPLAY
290
     0
  9
$INSUNITS
 70
     0
  9
$HYPERLINKBASE
  1

  9
$STYLESHEET
  1

  9
$XEDIT
290
     1
  9
$CEPSNTYPE
380
     0
  9
$PSTYLEMODE
290
     1
  9
$FINGERPRINTGUID
  2
{9E6D1AFD-A4BE-11D6-AAC6-0010A4A25215}
  9
$VERSIONGUID
  2
{9E6D1B06-A4BE-11D6-AAC6-0010A4A25215}
  9
$EXTNAMES
290
     1
  9
$PSVPSCALE
 40
0.0
  9
$OLESTARTUP
290
     0
  0
ENDSEC
  0
SECTION
  2
CLASSES
  0
CLASS
  1
DICTIONARYVAR
  2
AcDbDictionaryVar
  3
AutoCAD 2000
 90
    32768
280
     0
281
     0
  0
CLASS
  1
LWPOLYLINE
  2
AcDbPolyline
  3
AutoCAD 2000
 90
    32768
280
     0
281
     1
  0
CLASS
  1
ACDBDICTIONARYWDFLT
  2
AcDbDictionaryWithDefault
  3
AutoCAD 2000
 90
        0
280
     0
281
     0
  0
CLASS
  1
ACDBPLACEHOLDER
  2
AcDbPlaceHolder
  3
AutoCAD 2000
 90
        0
280
     0
281
     0
  0
CLASS
  1
LAYOUT
  2
AcDbLayout
  3
AutoCAD 2000
 90
        0
280
     0
281
     0
  0
ENDSEC
  0
SECTION
  2
TABLES
  0
TABLE
  2
VPORT
  5
12
330
0
100
AcDbSymbolTable
 70
     3
  0
VPORT
  5
2FC
330
12
100
AcDbSymbolTableRecord
100
AcDbViewportTableRecord
  2
*Active
 70
     0
 10
0.0
 20
0.0
 11
1.0
 21
1.0
 12
227.8112874791719
 22
71.34692165956948
 13
0.0
 23
0.0
 14
5.0
 24
5.0
 15
10.0
 25
10.0
 16
0.0
 26
0.0
 36
1.0
 17
0.0
 27
0.0
 37
0.0
 40
638.1973976294684
 41
1.760948905109489
 42
50.0
 43
0.0
 44
0.0
 50
0.0
 51
0.0
 71
     0
 72
 20000
 73
     1
 74
     1
 75
     0
 76
     0
 77
     0
 78
     0
281
     0
 65
     1
110
0.0
120
0.0
130
0.0
111
1.0
121
0.0
131
0.0
112
0.0
122
1.0
132
0.0
 79
     0
146
0.0
  0
ENDTAB
  0
TABLE
  2
LTYPE
  5
D
330
0
100
AcDbSymbolTable
 70
     1
  0
LTYPE
  5
E
330
D
100
AcDbSymbolTableRecord
100
AcDbLinetypeTableRecord
  2
BYBLOCK
 70
     0
  3

 72
    65
 73
     0
 40
0.0
  0
LTYPE
  5
F
330
D
100
AcDbSymbolTableRecord
100
AcDbLinetypeTableRecord
  2
BYLAYER
 70
     0
  3

 72
    65
 73
     0
 40
0.0
  0
LTYPE
  5
5
330
D
100
AcDbSymbolTableRecord
100
AcDbLinetypeTableRecord
  2
CONTINUOUS
 70
     0
  3
Solid line
 72
    65
 73
     0
 40
0.0
  0
ENDTAB
  0
TABLE
  2
LAYER
  5
A
330
0
100
AcDbSymbolTable
 70
     9
  0
LAYER
  5
4
330
A
100
AcDbSymbolTableRecord
100
AcDbLayerTableRecord
  2
0
 70
     0
 62
     7
  6
CONTINUOUS
370
    -3
390
1B4
  0
LAYER
  5
1F
330
A
100
AcDbSymbolTableRecord
100
AcDbLayerTableRecord
  2
ANCON-TIE
 70
     0
 62
     1
  6
CONTINUOUS
370
    -3
390
1B4
  0
LAYER
  5
1AD
330
A
100
AcDbSymbolTableRecord
100
AcDbLayerTableRecord
  2
ANCON-TEXT
 70
     0
 62
     6
  6
CONTINUOUS
370
    -3
390
1B4
  0
LAYER
  5
B1
330
A
100
AcDbSymbolTableRecord
100
AcDbLayerTableRecord
  2
ANCON-MASONRY
 70
     0
 62
     1
  6
CONTINUOUS
370
    -3
390
1B4
  0
LAYER
  5
23
330
A
100
AcDbSymbolTableRecord
100
AcDbLayerTableRecord
  2
ANCON-WINDPOST
 70
     0
 62
     3
  6
CONTINUOUS
370
    -3
390
1B4
  0
LAYER
  5
2B
330
A
100
AcDbSymbolTableRecord
100
AcDbLayerTableRecord
  2
ANCON-STRUC
 70
     0
 62
     2
  6
CONTINUOUS
370
    -3
390
1B4
  0
LAYER
  5
26
330
A
100
AcDbSymbolTableRecord
100
AcDbLayerTableRecord
  2
ANCON-CHANNEL
 70
     0
 62
     1
  6
CONTINUOUS
370
    -3
390
1B4
  0
LAYER
  5
BE
330
A
100
AcDbSymbolTableRecord
100
AcDbLayerTableRecord
  2
ANCON-BOLT
 70
     0
 62
     1
  6
CONTINUOUS
370
    -3
390
1B4
  0
LAYER
  5
1C2
330
A
100
AcDbSymbolTableRecord
100
AcDbLayerTableRecord
  2
ANCON-ORIGIN
 70
     0
 62
     1
  6
CONTINUOUS
370
    -3
390
1B4
  0
ENDTAB
  0
TABLE
  2
STYLE
  5
B
330
0
100
AcDbSymbolTable
 70
     2
  0
STYLE
  5
C
330
B
100
AcDbSymbolTableRecord
100
AcDbTextStyleTableRecord
  2
STANDARD
 70
     0
 40
0.0
 41
1.0
 50
0.0
 71
     0
 42
3.0
  3
txt.shx
  4

  0
STYLE
  5
1B
330
B
100
AcDbSymbolTableRecord
100
AcDbTextStyleTableRecord
  2
ROMANS
 70
     0
 40
9.0
 41
1.0
 50
0.0
 71
     0
 42
9.0
  3
romans
  4

  0
ENDTAB
  0
TABLE
  2
VIEW
  5
10
330
0
100
AcDbSymbolTable
 70
     0
  0
ENDTAB
  0
TABLE
  2
UCS
  5
11
330
0
100
AcDbSymbolTable
 70
     0
  0
ENDTAB
  0
TABLE
  2
APPID
  5
14
330
0
100
AcDbSymbolTable
 70
     1
  0
APPID
  5
15
330
14
100
AcDbSymbolTableRecord
100
AcDbRegAppTableRecord
  2
ACAD
 70
     0
  0
ENDTAB
  0
TABLE
  2
DIMSTYLE
  5
16
330
0
100
AcDbSymbolTable
 70
     2
100
AcDbDimStyleTable
 71
     0
  0
DIMSTYLE
105
1D
330
16
100
AcDbSymbolTableRecord
100
AcDbDimStyleTableRecord
  2
1-5
 70
     0
 40
5.0
 41
0.0
 42
4.5
 43
0.0
 44
1.5
 45
1.0
 46
1.25
 73
     0
 74
     0
 77
     1
 78
    12
140
1.8
141
0.0
142
1.0
143
0.04
146
1.25
147
0.1
271
     2
272
     2
279
     2
284
    12
285
    12
286
    12
340
1B
  0
DIMSTYLE
105
1C3
330
16
100
AcDbSymbolTableRecord
100
AcDbDimStyleTableRecord
  2
STANDARD
 70
     0
340
C
  0
ENDTAB
  0
TABLE
  2
BLOCK_RECORD
  5
1
330
0
100
AcDbSymbolTable
 70
     2
  0
BLOCK_RECORD
  5
2
330
1
100
AcDbSymbolTableRecord
100
AcDbBlockTableRecord
  2
*MODEL_SPACE
340
1B7
  0
BLOCK_RECORD
  5
7
330
1
100
AcDbSymbolTableRecord
100
AcDbBlockTableRecord
  2
*PAPER_SPACE
340
1B8
  0
BLOCK_RECORD
  5
1BE
330
1
100
AcDbSymbolTableRecord
100
AcDbBlockTableRecord
  2
OR
340
0
  0
BLOCK_RECORD
  5
1C4
330
1
100
AcDbSymbolTableRecord
100
AcDbBlockTableRecord
  2
30channel
340
0
102
{BLKREFS
331
216
102
}
  0
ENDTAB
  0
ENDSEC
  0
SECTION
  2
BLOCKS
  0
BLOCK
  5
3
330
2
100
AcDbEntity
  8
0
100
AcDbBlockBegin
  2
*MODEL_SPACE
 70
     0
 10
0.0
 20
0.0
 30
0.0
  3
*MODEL_SPACE
  1

  0
ENDBLK
  5
6
330
2
100
AcDbEntity
  8
0
100
AcDbBlockEnd
  0
BLOCK
  5
8
330
7
100
AcDbEntity
 67
     1
  8
0
100
AcDbBlockBegin
  2
*PAPER_SPACE
 70
     0
 10
0.0
 20
0.0
 30
0.0
  3
*PAPER_SPACE
  1

  0
ENDBLK
  5
9
330
7
100
AcDbEntity
 67
     1
  8
0
100
AcDbBlockEnd
  0
BLOCK
  5
1C0
330
1BE
100
AcDbEntity
  8
0
100
AcDbBlockBegin
  2
OR
 70
     0
 10
0.0
 20
0.0
 30
0.0
  3
OR
  1

  0
LWPOLYLINE
  5
1BF
330
1BE
100
AcDbEntity
  8
ANCON-ORIGIN
100
AcDbPolyline
 90
        5
 70
     0
 43
0.0
 10
-10.17326135673704
 20
-6.213917405744268
 10
-10.17326135673704
 20
6.213917405744268
 10
10.17326135673704
 20
-6.213917405744268
 10
10.17326135673704
 20
6.213917405744268
 10
-10.17326135673704
 20
-6.213917405744268
  0
ENDBLK
  5
1C1
330
1BE
100
AcDbEntity
  8
0
100
AcDbBlockEnd
  0
BLOCK
  5
214
330
1C4
100
AcDbEntity
  8
0
100
AcDbBlockBegin
  2
30channel
 70
     0
 10
0.0
 20
0.0
 30
0.0
  3
30channel
  1

  0
TEXT
  5
1C5
330
1C4
100
AcDbEntity
  8
ANCON-TEXT
100
AcDbText
 10
-388.3538807824293
 20
-45.23572445620127
 30
0.0
 40
9.0
  1

  7
ROMANS
100
AcDbText
  0
TEXT
  5
1C6
330
1C4
100
AcDbEntity
  8
ANCON-TEXT
100
AcDbText
 10
-388.3538807824293
 20
-59.59282782648878
 30
0.0
 40
9.0
  1

  7
ROMANS
100
AcDbText
  0
TEXT
  5
1C7
330
1C4
100
AcDbEntity
  8
ANCON-TEXT
100
AcDbText
 10
-333.3312888541478
 20
-30.5001404103975
 30
0.0
 40
9.0
  1

  7
ROMANS
100
AcDbText
  0
TEXT
  5
1C8
330
1C4
100
AcDbEntity
  8
ANCON-TEXT
100
AcDbText
 10
-333.3312888541478
 20
13.21414530388827
 30
0.0
 40
9.0
  1
STANDARD EDGE : 75mm
  7
ROMANS
100
AcDbText
  0
TEXT
  5
1C9
330
1C4
100
AcDbEntity
  8
ANCON-TEXT
100
AcDbText
 10
-333.3312888541478
 20
27.78557387531682
 30
0.0
 40
9.0
  1
ANCON 30/20 CAST-IN CHANNEL
  7
ROMANS
100
AcDbText
  0
LINE
  5
1CA
330
1C4
100
AcDbEntity
  8
ANCON-CHANNEL
100
AcDbLine
 10
-284.8827690584341
 20
61.33809506595651
 30
0.0
 11
-284.8827690584341
 21
72.85165908403107
 31
0.0
  0
LINE
  5
1CB
330
1C4
100
AcDbEntity
  8
ANCON-CHANNEL
100
AcDbLine
 10
-270.7594500359755
 20
63.95330328856516
 30
0.0
 11
-270.7594500359755
 21
67.78446787575103
 31
0.0
  0
LINE
  5
1CC
330
1C4
100
AcDbEntity
  8
ANCON-CHANNEL
100
AcDbLine
 10
-271.7594500359755
 20
64.37379761831403
 30
0.0
 11
-271.7594500359755
 21
66.56970877590964
 31
0.0
  0
LINE
  5
1CD
330
1C4
100
AcDbEntity
  8
ANCON-CHANNEL
100
AcDbLine
 10
-270.7594500359755
 20
61.33809506595652
 30
0.0
 11
-270.7594500359755
 21
63.29920329505552
 31
0.0
  0
LINE
  5
1CE
330
1C4
100
AcDbEntity
  8
ANCON-CHANNEL
100
AcDbLine
 10
-269.7594500359755
 20
61.33809506595651
 30
0.0
 11
-269.7594500359755
 21
63.25248078397692
 31
0.0
  0
LINE
  5
1CF
330
1C4
100
AcDbEntity
  8
ANCON-CHANNEL
100
AcDbLine
 10
-269.7594500359755
 20
64.65412717147995
 30
0.0
 11
-269.7594500359755
 21
67.78446787575103
 31
0.0
  0
LINE
  5
1D0
330
1C4
100
AcDbEntity
  8
ANCON-CHANNEL
100
AcDbLine
 10
-269.7594500359755
 20
68.5787340241701
 30
0.0
 11
-269.7594500359755
 21
70.58775927243061
 31
0.0
  0
LINE
  5
1D1
330
1C4
100
AcDbEntity
  8
ANCON-CHANNEL
100
AcDbLine
 10
-270.7594500359755
 20
68.25168333825207
 30
0.0
 11
-270.7594500359755
 21
70.40087336309551
 31
0.0
  0
LINE
  5
1D2
330
1C4
100
AcDbEntity
  8
ANCON-CHANNEL
100
AcDbLine
 10
-271.7594500359755
 20
67.17708901499356
 30
0.0
 11
-271.7594500359755
 21
68.90578471008814
 31
0.0
  0
LINE
  5
1D3
330
1C4
100
AcDbEntity
  8
ANCON-CHANNEL
100
AcDbLine
 10
-271.7594500359755
 20
69.55988608192427
 30
0.0
 11
-271.7594500359755
 21
72.85165908403107
 31
0.0
  0
LINE
  5
1D4
330
1C4
100
AcDbEntity
  8
ANCON-CHANNEL
100
AcDbLine
 10
-260.7140562725162
 20
63.95330328856516
 30
0.0
 11
-260.7140562725162
 21
67.78446787575103
 31
0.0
  0
LINE
  5
1D5
330
1C4
100
AcDbEntity
  8
ANCON-CHANNEL
100
AcDbLine
 10
-261.7140562725162
 20
64.37379761831403
 30
0.0
 11
-261.7140562725162
 21
66.56970877590964
 31
0.0
  0
LINE
  5
1D6
330
1C4
100
AcDbEntity
  8
ANCON-CHANNEL
100
AcDbLine
 10
-259.7140562725162
 20
61.33809506595651
 30
0.0
 11
-259.7140562725162
 21
63.25248078397692
 31
0.0
  0
LINE
  5
1D7
330
1C4
100
AcDbEntity
  8
ANCON-CHANNEL
100
AcDbLine
 10
-260.7140562725162
 20
61.33809506595652
 30
0.0
 11
-260.7140562725162
 21
63.29920329505552
 31
0.0
  0
LINE
  5
1D8
330
1C4
100
AcDbEntity
  8
ANCON-CHANNEL
100
AcDbLine
 10
-260.7140562725162
 20
68.25168333825207
 30
0.0
 11
-260.7140562725162
 21
70.40087336309551
 31
0.0
  0
LINE
  5
1D9
330
1C4
100
AcDbEntity
  8
ANCON-CHANNEL
100
AcDbLine
 10
-259.7140562725162
 20
68.5787340241701
 30
0.0
 11
-259.7140562725162
 21
70.58775927243061
 31
0.0
  0
LINE
  5
1DA
330
1C4
100
AcDbEntity
  8
ANCON-CHANNEL
100
AcDbLine
 10
-259.7140562725162
 20
64.65412717147995
 30
0.0
 11
-259.7140562725162
 21
67.78446787575103
 31
0.0
  0
LINE
  5
1DB
330
1C4
100
AcDbEntity
  8
ANCON-CHANNEL
100
AcDbLine
 10
-261.7140562725162
 20
67.17708901499356
 30
0.0
 11
-261.7140562725162
 21
68.90578471008814
 31
0.0
  0
LINE
  5
1DC
330
1C4
100
AcDbEntity
  8
ANCON-CHANNEL
100
AcDbLine
 10
-261.7140562725162
 20
69.55988608192427
 30
0.0
 11
-261.7140562725162
 21
73.10169586768376
 31
0.0
  0
LINE
  5
1DD
330
1C4
100
AcDbEntity
  8
ANCON-CHANNEL
100
AcDbLine
 10
-250.6686625090569
 20
63.95330328856516
 30
0.0
 11
-250.6686625090569
 21
67.78446787575103
 31
0.0
  0
LINE
  5
1DE
330
1C4
100
AcDbEntity
  8
ANCON-CHANNEL
100
AcDbLine
 10
-251.6686625090569
 20
64.37379761831403
 30
0.0
 11
-251.6686625090569
 21
66.56970877590964
 31
0.0
  0
LINE
  5
1DF
330
1C4
100
AcDbEntity
  8
ANCON-CHANNEL
100
AcDbLine
 10
-250.6686625090569
 20
61.33809506595652
 30
0.0
 11
-250.6686625090569
 21
63.29920329505552
 31
0.0
  0
LINE
  5
1E0
330
1C4
100
AcDbEntity
  8
ANCON-CHANNEL
100
AcDbLine
 10
-249.6686625090569
 20
61.33809506595651
 30
0.0
 11
-249.6686625090569
 21
63.25248078397692
 31
0.0
  0
LINE
  5
1E1
330
1C4
100
AcDbEntity
  8
ANCON-CHANNEL
100
AcDbLine
 10
-249.6686625090569
 20
64.65412717147995
 30
0.0
 11
-249.6686625090569
 21
67.78446787575103
 31
0.0
  0
LINE
  5
1E2
330
1C4
100
AcDbEntity
  8
ANCON-CHANNEL
100
AcDbLine
 10
-249.6686625090569
 20
68.5787340241701
 30
0.0
 11
-249.6686625090569
 21
70.58775927243061
 31
0.0
  0
LINE
  5
1E3
330
1C4
100
AcDbEntity
  8
ANCON-CHANNEL
100
AcDbLine
 10
-250.6686625090569
 20
68.25168333825207
 30
0.0
 11
-250.6686625090569
 21
70.40087336309551
 31
0.0
  0
LINE
  5
1E4
330
1C4
100
AcDbEntity
  8
ANCON-CHANNEL
100
AcDbLine
 10
-251.6686625090569
 20
67.17708901499356
 30
0.0
 11
-251.6686625090569
 21
68.90578471008814
 31
0.0
  0
LINE
  5
1E5
330
1C4
100
AcDbEntity
  8
ANCON-CHANNEL
100
AcDbLine
 10
-251.6686625090569
 20
69.55988608192427
 30
0.0
 11
-251.6686625090569
 21
73.10169586768376
 31
0.0
  0
LINE
  5
1E6
330
1C4
100
AcDbEntity
  8
ANCON-CHANNEL
100
AcDbLine
 10
-231.5778749821383
 20
64.37379761831403
 30
0.0
 11
-231.5778749821383
 21
66.56970877590964
 31
0.0
  0
LINE
  5
1E7
330
1C4
100
AcDbEntity
  8
ANCON-CHANNEL
100
AcDbLine
 10
-240.6232687455976
 20
63.95330328856516
 30
0.0
 11
-240.6232687455976
 21
67.78446787575103
 31
0.0
  0
LINE
  5
1E8
330
1C4
100
AcDbEntity
  8
ANCON-CHANNEL
100
AcDbLine
 10
-241.6232687455976
 20
64.37379761831403
 30
0.0
 11
-241.6232687455976
 21
66.56970877590964
 31
0.0
  0
LINE
  5
1E9
330
1C4
100
AcDbEntity
  8
ANCON-CHANNEL
100
AcDbLine
 10
-239.6232687455976
 20
61.33809506595651
 30
0.0
 11
-239.6232687455976
 21
63.25248078397692
 31
0.0
  0
LINE
  5
1EA
330
1C4
100
AcDbEntity
  8
ANCON-CHANNEL
100
AcDbLine
 10
-240.6232687455976
 20
61.33809506595652
 30
0.0
 11
-240.6232687455976
 21
63.29920329505552
 31
0.0
  0
LINE
  5
1EB
330
1C4
100
AcDbEntity
  8
ANCON-CHANNEL
100
AcDbLine
 10
-239.6232687455976
 20
68.5787340241701
 30
0.0
 11
-239.6232687455976
 21
70.58775927243061
 31
0.0
  0
LINE
  5
1EC
330
1C4
100
AcDbEntity
  8
ANCON-CHANNEL
100
AcDbLine
 10
-239.6232687455976
 20
64.65412717147995
 30
0.0
 11
-239.6232687455976
 21
67.78446787575103
 31
0.0
  0
LINE
  5
1ED
330
1C4
100
AcDbEntity
  8
ANCON-CHANNEL
100
AcDbLine
 10
-240.6232687455976
 20
68.25168333825207
 30
0.0
 11
-240.6232687455976
 21
70.40087336309551
 31
0.0
  0
LINE
  5
1EE
330
1C4
100
AcDbEntity
  8
ANCON-CHANNEL
100
AcDbLine
 10
-241.6232687455976
 20
67.17708901499356
 30
0.0
 11
-241.6232687455976
 21
68.90578471008814
 31
0.0
  0
LINE
  5
1EF
330
1C4
100
AcDbEntity
  8
ANCON-CHANNEL
100
AcDbLine
 10
-241.6232687455976
 20
69.55988608192427
 30
0.0
 11
-241.6232687455976
 21
72.85165908403107
 31
0.0
  0
LINE
  5
1F0
330
1C4
100
AcDbEntity
  8
ANCON-CHANNEL
100
AcDbLine
 10
-231.5778749821383
 20
67.17708901499356
 30
0.0
 11
-231.5778749821383
 21
68.90578471008814
 31
0.0
  0
LINE
  5
1F1
330
1C4
100
AcDbEntity
  8
ANCON-CHANNEL
100
AcDbLine
 10
-231.5778749821383
 20
69.55988608192427
 30
0.0
 11
-231.5778749821383
 21
73.10169586768376
 31
0.0
  0
LINE
  5
1F2
330
1C4
100
AcDbEntity
  8
ANCON-CHANNEL
100
AcDbLine
 10
-230.5778749821383
 20
63.95330328856516
 30
0.0
 11
-230.5778749821383
 21
67.78446787575103
 31
0.0
  0
LINE
  5
1F3
330
1C4
100
AcDbEntity
  8
ANCON-CHANNEL
100
AcDbLine
 10
-229.5778749821383
 20
61.33809506595651
 30
0.0
 11
-229.5778749821383
 21
63.25248078397692
 31
0.0
  0
LINE
  5
1F4
330
1C4
100
AcDbEntity
  8
ANCON-CHANNEL
100
AcDbLine
 10
-230.5778749821383
 20
61.33809506595652
 30
0.0
 11
-230.5778749821383
 21
63.29920329505552
 31
0.0
  0
LINE
  5
1F5
330
1C4
100
AcDbEntity
  8
ANCON-CHANNEL
100
AcDbLine
 10
-229.5778749821383
 20
64.65412717147995
 30
0.0
 11
-229.5778749821383
 21
67.78446787575103
 31
0.0
  0
LINE
  5
1F6
330
1C4
100
AcDbEntity
  8
ANCON-CHANNEL
100
AcDbLine
 10
-229.5778749821383
 20
68.5787340241701
 30
0.0
 11
-229.5778749821383
 21
70.58775927243061
 31
0.0
  0
LINE
  5
1F7
330
1C4
100
AcDbEntity
  8
ANCON-CHANNEL
100
AcDbLine
 10
-230.5778749821383
 20
68.25168333825207
 30
0.0
 11
-230.5778749821383
 21
70.40087336309551
 31
0.0
  0
LINE
  5
1F8
330
1C4
100
AcDbEntity
  8
ANCON-CHANNEL
100
AcDbLine
 10
-217.8827690584341
 20
61.33809506595651
 30
0.0
 11
-217.8827690584342
 21
72.85165908403105
 31
0.0
  0
LINE
  5
1F9
330
1C4
100
AcDbEntity
  8
ANCON-CHANNEL
100
AcDbLine
 10
-214.8827690584342
 20
61.33809506595652
 30
0.0
 11
-214.8827690584341
 21
72.85165908403105
 31
0.0
  0
LINE
  5
1FA
330
1C4
100
AcDbEntity
  8
ANCON-CHANNEL
100
AcDbLine
 10
-220.3827690584341
 20
67.09487707499381
 30
0.0
 11
-220.3827690584342
 21
72.85165908403108
 31
0.0
  0
LINE
  5
1FB
330
1C4
100
AcDbEntity
  8
ANCON-CHANNEL
100
AcDbLine
 10
-220.3827690584341
 20
67.09487707499381
 30
0.0
 11
-220.3827690584342
 21
61.33809506595651
 31
0.0
  0
LINE
  5
1FC
330
1C4
100
AcDbEntity
  8
ANCON-CHANNEL
100
AcDbLine
 10
-201.3827690584341
 20
74.0948770749938
 30
0.0
 11
-201.3827690584341
 21
74.59487707499381
 31
0.0
  0
LINE
  5
1FD
330
1C4
100
AcDbEntity
  8
ANCON-CHANNEL
100
AcDbLine
 10
-201.3827690584341
 20
74.59487707499381
 30
0.0
 11
-201.3827690584341
 21
74.0948770749938
 31
0.0
  0
LINE
  5
1FE
330
1C4
100
AcDbEntity
  8
ANCON-CHANNEL
100
AcDbLine
 10
-201.3827690584341
 20
59.04845893241088
 30
0.0
 11
-201.3827690584341
 21
60.0948770749938
 31
0.0
  0
LINE
  5
1FF
330
1C4
100
AcDbEntity
  8
ANCON-CHANNEL
100
AcDbLine
 10
-201.3827690584341
 20
59.59487707499381
 30
0.0
 11
-201.3827690584341
 21
59.04845893241087
 31
0.0
  0
LINE
  5
200
330
1C4
100
AcDbEntity
  8
ANCON-CHANNEL
100
AcDbLine
 10
-218.7470324555025
 20
75.19751687607386
 30
0.0
 11
-207.4384431731572
 21
79.36383924325368
 31
0.0
  0
LINE
  5
201
330
1C4
100
AcDbEntity
  8
ANCON-CHANNEL
100
AcDbLine
 10
-207.4384431731572
 20
54.82591490673385
 30
0.0
 11
-218.7470324555025
 21
58.99223727391373
 31
0.0
  0
LINE
  5
202
330
1C4
100
AcDbEntity
  8
ANCON-CHANNEL
100
AcDbLine
 10
-217.8827690584341
 20
72.85165908403105
 30
0.0
 11
-206.5741797760888
 21
77.0179814512109
 31
0.0
  0
LINE
  5
203
330
1C4
100
AcDbEntity
  8
ANCON-CHANNEL
100
AcDbLine
 10
-206.5741797760888
 20
57.17177269877665
 30
0.0
 11
-217.8827690584341
 21
61.33809506595651
 31
0.0
  0
LINE
  5
204
330
1C4
100
AcDbEntity
  8
ANCON-CHANNEL
100
AcDbLine
 10
-220.3827690584342
 20
72.85165908403107
 30
0.0
 11
-284.8827690584341
 21
72.85165908403105
 31
0.0
  0
LINE
  5
205
330
1C4
100
AcDbEntity
  8
ANCON-CHANNEL
100
AcDbLine
 10
-220.3827690584341
 20
61.33809506595651
 30
0.0
 11
-284.8827690584341
 21
61.33809506595651
 31
0.0
  0
LINE
  5
206
330
1C4
100
AcDbEntity
  8
ANCON-CHANNEL
100
AcDbLine
 10
-217.8827690584342
 20
72.85165908403105
 30
0.0
 11
-214.8827690584341
 21
72.85165908403105
 31
0.0
  0
LINE
  5
207
330
1C4
100
AcDbEntity
  8
ANCON-CHANNEL
100
AcDbLine
 10
-217.8827690584341
 20
61.33809506595651
 30
0.0
 11
-214.8827690584341
 21
61.33809506595652
 31
0.0
  0
ARC
  5
208
330
1C4
100
AcDbEntity
  8
ANCON-CHANNEL
100
AcDbCircle
 10
-217.8827690584342
 20
72.85165908403108
 30
0.0
 40
2.5
100
AcDbArc
 50
110.224859431168
 51
180.0
  0
ARC
  5
209
330
1C4
100
AcDbEntity
  8
ANCON-CHANNEL
100
AcDbCircle
 10
-217.8827690584342
 20
61.33809506595651
 30
0.0
 40
2.5
100
AcDbArc
 50
180.0
 51
249.7751405688318
  0
LINE
  5
20A
330
1C4
100
AcDbEntity
  8
ANCON-CHANNEL
100
AcDbLine
 10
-203.8827690584341
 20
59.04845893241087
 30
0.0
 11
-203.8827690584341
 21
60.0948770749938
 31
0.0
  0
ARC
  5
20B
330
1C4
100
AcDbEntity
  8
ANCON-CHANNEL
100
AcDbCircle
 10
-205.8827690584341
 20
75.14129521757668
 30
0.0
 40
2.0
100
AcDbArc
 50
0.0000000000000509
 51
110.2248594311681
  0
ARC
  5
20C
330
1C4
100
AcDbEntity
  8
ANCON-CHANNEL
100
AcDbCircle
 10
-205.8827690584341
 20
59.04845893241087
 30
0.0
 40
2.0
100
AcDbArc
 50
249.7751405688318
 51
0.0000000000000636
  0
ARC
  5
20D
330
1C4
100
AcDbEntity
  8
ANCON-CHANNEL
100
AcDbCircle
 10
-205.8827690584341
 20
75.14129521757668
 30
0.0
 40
4.5
100
AcDbArc
 50
0.0000000000000509
 51
110.2248594311681
  0
ARC
  5
20E
330
1C4
100
AcDbEntity
  8
ANCON-CHANNEL
100
AcDbCircle
 10
-205.8827690584341
 20
59.04845893241087
 30
0.0
 40
4.5
100
AcDbArc
 50
249.7751405688318
 51
0.0000000000000636
  0
LINE
  5
20F
330
1C4
100
AcDbEntity
  8
ANCON-CHANNEL
100
AcDbLine
 10
-203.8827690584342
 20
74.0948770749938
 30
0.0
 11
-203.8827690584341
 21
75.14129521757668
 31
0.0
  0
LINE
  5
210
330
1C4
100
AcDbEntity
  8
ANCON-CHANNEL
100
AcDbLine
 10
-201.3827690584341
 20
74.0948770749938
 30
0.0
 11
-201.3827690584341
 21
75.14129521757668
 31
0.0
  0
LINE
  5
211
330
1C4
100
AcDbEntity
  8
ANCON-CHANNEL
100
AcDbLine
 10
-201.3827690584341
 20
60.09487707499379
 30
0.0
 11
-201.3827690584341
 21
59.59487707499381
 31
0.0
  0
LINE
  5
212
330
1C4
100
AcDbEntity
  8
ANCON-CHANNEL
100
AcDbLine
 10
-203.8827690584342
 20
74.0948770749938
 30
0.0
 11
-201.3827690584341
 21
74.0948770749938
 31
0.0
  0
LINE
  5
213
330
1C4
100
AcDbEntity
  8
ANCON-CHANNEL
100
AcDbLine
 10
-203.8827690584341
 20
60.0948770749938
 30
0.0
 11
-201.3827690584341
 21
60.09487707499379
 31
0.0
  0
ENDBLK
  5
215
330
1C4
100
AcDbEntity
  8
0
100
AcDbBlockEnd
  0
ENDSEC
  0
SECTION
  2
ENTITIES
  0
LINE
  5
1E
330
2
100
AcDbEntity
  8
ANCON-TIE
100
AcDbLine
 10
165.0
 20
81.25
 30
0.0
 11
165.0
 21
78.75
 31
0.0
  0
LINE
  5
20
330
2
100
AcDbEntity
  8
ANCON-TIE
100
AcDbLine
 10
77.50440866282002
 20
81.25
 30
0.0
 11
85.00440866282003
 21
77.25
 31
0.0
  0
LINE
  5
21
330
2
100
AcDbEntity
  8
ANCON-TIE
100
AcDbLine
 10
85.00440866282003
 20
77.25
 30
0.0
 11
92.50440866282003
 21
81.25
 31
0.0
  0
LINE
  5
22
330
2
100
AcDbEntity
  8
ANCON-WINDPOST
100
AcDbLine
 10
70.00000000000006
 20
-199.9999999999999
 30
0.0
 11
70.00000000000006
 21
375.0
 31
0.0
  0
LINE
  5
24
330
2
100
AcDbEntity
  8
ANCON-WINDPOST
100
AcDbLine
 10
10.00000000000005
 20
50.00000000000011
 30
0.0
 11
10.00000000000005
 21
375.0
 31
0.0
  0
LINE
  5
2A
330
2
100
AcDbEntity
  8
ANCON-STRUC
100
AcDbLine
 10
0.0
 20
75.0
 30
0.0
 11
-191.2271534864024
 21
75.0
 31
0.0
  0
LINE
  5
B0
330
2
100
AcDbEntity
  8
ANCON-MASONRY
100
AcDbLine
 10
202.4999999999999
 20
-140.0
 30
0.0
 11
202.4999999999999
 21
-75.0
 31
0.0
  0
LINE
  5
B2
330
2
100
AcDbEntity
  8
ANCON-MASONRY
100
AcDbLine
 10
100.0
 20
-140.0
 30
0.0
 11
100.0
 21
-75.0
 31
0.0
  0
LINE
  5
B3
330
2
100
AcDbEntity
  8
ANCON-WINDPOST
100
AcDbLine
 10
6.0
 20
50.0
 30
0.0
 11
6.0
 21
-200.0
 31
0.0
  0
LINE
  5
B4
330
2
100
AcDbEntity
  8
ANCON-WINDPOST
100
AcDbLine
 10
0.0
 20
50.0
 30
0.0
 11
0.0
 21
-200.0
 31
0.0
  0
LINE
  5
B5
330
2
100
AcDbEntity
  8
ANCON-WINDPOST
100
AcDbLine
 10
70.00000000000006
 20
-200.0
 30
0.0
 11
70.00000000000006
 21
50.00000000000011
 31
0.0
  0
LINE
  5
B6
330
2
100
AcDbEntity
  8
ANCON-STRUC
100
AcDbLine
 10
0.0
 20
75.0
 30
0.0
 11
0.0
 21
-215.0
 31
0.0
  0
LINE
  5
B7
330
2
100
AcDbEntity
  8
ANCON-TIE
100
AcDbLine
 10
92.50440866282003
 20
-146.25
 30
0.0
 11
165.0
 21
-146.25
 31
0.0
  0
LINE
  5
B8
330
2
100
AcDbEntity
  8
ANCON-TIE
100
AcDbLine
 10
92.50440866282003
 20
-143.75
 30
0.0
 11
165.0
 21
-143.75
 31
0.0
  0
LINE
  5
B9
330
2
100
AcDbEntity
  8
ANCON-MASONRY
100
AcDbLine
 10
100.0
 20
-140.0
 30
0.0
 11
202.4999999999999
 21
-140.0
 31
0.0
  0
LINE
  5
BA
330
2
100
AcDbEntity
  8
ANCON-MASONRY
100
AcDbLine
 10
100.0
 20
-150.0
 30
0.0
 11
202.4999999999999
 21
-150.0
 31
0.0
  0
LINE
  5
BB
330
2
100
AcDbEntity
  8
ANCON-MASONRY
100
AcDbLine
 10
100.0
 20
-215.0
 30
0.0
 11
100.0
 21
-150.0
 31
0.0
  0
LINE
  5
BC
330
2
100
AcDbEntity
  8
ANCON-WINDPOST
100
AcDbLine
 10
70.00000000000006
 20
-200.0
 30
0.0
 11
0.0
 21
-200.0
 31
0.0
  0
LINE
  5
BD
330
2
100
AcDbEntity
  8
ANCON-BOLT
100
AcDbLine
 10
13.99999999999997
 20
-130.0
 30
0.0
 11
13.99999999999997
 21
-170.0
 31
0.0
  0
LINE
  5
BF
330
2
100
AcDbEntity
  8
ANCON-WINDPOST
100
AcDbLine
 10
8.0
 20
-149.0
 30
0.0
 11
11.0
 21
-152.0
 31
0.0
  0
LINE
  5
C0
330
2
100
AcDbEntity
  8
ANCON-WINDPOST
100
AcDbLine
 10
6.0
 20
-109.9999999999999
 30
0.0
 11
6.0
 21
-189.9999999999999
 31
0.0
  0
LINE
  5
C1
330
2
100
AcDbEntity
  8
ANCON-BOLT
100
AcDbLine
 10
40.0
 20
-144.9274845353932
 30
0.0
 11
40.0
 21
-154.7469392428882
 31
0.0
  0
LINE
  5
C2
330
2
100
AcDbEntity
  8
ANCON-BOLT
100
AcDbLine
 10
38.91112722249999
 20
-143.8386117578933
 30
0.0
 11
38.91112722249999
 21
-155.8358120203882
 31
0.0
  0
ARC
  5
C3
330
2
100
AcDbEntity
  8
ANCON-BOLT
100
AcDbCircle
 10
16.17774555500668
 20
-149.9999999999994
 30
0.0
 40
11.97760055249255
100
AcDbArc
 50
329.7273586810804
 51
30.27264131891897
  0
LINE
  5
C4
330
2
100
AcDbEntity
  8
ANCON-BOLT
100
AcDbLine
 10
28.15534610749947
 20
-150.0
 30
0.0
 11
28.15534610749947
 21
-156.5332366649996
 31
0.0
  0
ARC
  5
C5
330
2
100
AcDbEntity
  8
ANCON-BOLT
100
AcDbCircle
 10
29.24421888499356
 20
-149.9999999999994
 30
0.0
 40
11.9776005524936
100
AcDbArc
 50
149.727358681085
 51
210.2726413189181
  0
LINE
  5
C6
330
2
100
AcDbEntity
  8
ANCON-BOLT
100
AcDbLine
 10
17.26661833249946
 20
-140.9921539013267
 30
0.0
 11
17.26661833249946
 21
-159.0078460986728
 31
0.0
  0
LINE
  5
C7
330
2
100
AcDbEntity
  8
ANCON-BOLT
100
AcDbLine
 10
28.15534610749947
 20
-140.9921539013267
 30
0.0
 11
28.15534610749947
 21
-159.0078460986728
 31
0.0
  0
LINE
  5
C8
330
2
100
AcDbEntity
  8
ANCON-BOLT
100
AcDbLine
 10
17.26661833249946
 20
-133.6669083374999
 30
0.0
 11
17.26661833249946
 21
-166.3330916625
 31
0.0
  0
LINE
  5
C9
330
2
100
AcDbEntity
  8
ANCON-BOLT
100
AcDbLine
 10
13.99999999999997
 20
-133.6669083374999
 30
0.0
 11
13.99999999999997
 21
-166.3330916625
 31
0.0
  0
ARC
  5
D0
330
2
100
AcDbEntity
  8
ANCON-BOLT
100
AcDbCircle
 10
20.78314189886717
 20
-159.0078460986746
 30
0.0
 40
3.516523566367934
100
AcDbArc
 50
122.3800650936792
 51
237.6199349062345
  0
LINE
  5
D1
330
2
100
AcDbEntity
  8
ANCON-WINDPOST
100
AcDbLine
 10
8.0
 20
-173.0
 30
0.0
 11
11.0
 21
-176.0
 31
0.0
  0
LINE
  5
D2
330
2
100
AcDbEntity
  8
ANCON-WINDPOST
100
AcDbLine
 10
8.0
 20
-185.0
 30
0.0
 11
11.0
 21
-188.0
 31
0.0
  0
LINE
  5
D3
330
2
100
AcDbEntity
  8
ANCON-WINDPOST
100
AcDbLine
 10
9.000000000000099
 20
-189.9999999999999
 30
0.0
 11
6.0
 21
-189.9999999999999
 31
0.0
  0
LINE
  5
D4
330
2
100
AcDbEntity
  8
ANCON-WINDPOST
100
AcDbLine
 10
9.000000000000099
 20
-189.9999999999999
 30
0.0
 11
11.0
 21
-188.0
 31
0.0
  0
LINE
  5
D5
330
2
100
AcDbEntity
  8
ANCON-WINDPOST
100
AcDbLine
 10
11.0
 20
-182.0
 30
0.0
 11
8.0
 21
-185.0
 31
0.0
  0
LINE
  5
D6
330
2
100
AcDbEntity
  8
ANCON-WINDPOST
100
AcDbLine
 10
8.0
 20
-179.0
 30
0.0
 11
11.0
 21
-176.0
 31
0.0
  0
LINE
  5
D7
330
2
100
AcDbEntity
  8
ANCON-WINDPOST
100
AcDbLine
 10
11.0
 20
-182.0
 30
0.0
 11
8.0
 21
-179.0
 31
0.0
  0
LINE
  5
E4
330
2
100
AcDbEntity
  8
ANCON-WINDPOST
100
AcDbLine
 10
8.0
 20
-161.0
 30
0.0
 11
11.0
 21
-164.0
 31
0.0
  0
LINE
  5
E6
330
2
100
AcDbEntity
  8
ANCON-WINDPOST
100
AcDbLine
 10
11.0
 20
-170.0
 30
0.0
 11
8.0
 21
-173.0
 31
0.0
  0
LINE
  5
E7
330
2
100
AcDbEntity
  8
ANCON-WINDPOST
100
AcDbLine
 10
8.0
 20
-167.0
 30
0.0
 11
11.0
 21
-164.0
 31
0.0
  0
LINE
  5
E8
330
2
100
AcDbEntity
  8
ANCON-WINDPOST
100
AcDbLine
 10
11.0
 20
-170.0
 30
0.0
 11
8.0
 21
-167.0
 31
0.0
  0
LINE
  5
E9
330
2
100
AcDbEntity
  8
ANCON-BOLT
100
AcDbLine
 10
13.99999999999997
 20
-170.0
 30
0.0
 11
11.0
 21
-170.0
 31
0.0
  0
LINE
  5
EA
330
2
100
AcDbEntity
  8
ANCON-BOLT
100
AcDbLine
 10
13.99999999999997
 20
-166.3330916625
 30
0.0
 11
17.26661833249946
 21
-166.3330916625
 31
0.0
  0
LINE
  5
EB
330
2
100
AcDbEntity
  8
ANCON-WINDPOST
100
AcDbLine
 10
11.0
 20
-158.0
 30
0.0
 11
8.0
 21
-161.0
 31
0.0
  0
LINE
  5
EC
330
2
100
AcDbEntity
  8
ANCON-WINDPOST
100
AcDbLine
 10
8.0
 20
-155.0
 30
0.0
 11
11.0
 21
-152.0
 31
0.0
  0
LINE
  5
ED
330
2
100
AcDbEntity
  8
ANCON-WINDPOST
100
AcDbLine
 10
11.0
 20
-158.0
 30
0.0
 11
8.0
 21
-155.0
 31
0.0
  0
LINE
  5
EE
330
2
100
AcDbEntity
  8
ANCON-BOLT
100
AcDbLine
 10
28.15534610749947
 20
-155.8358120203882
 30
0.0
 11
38.91112722249991
 21
-155.8358120203882
 31
0.0
  0
LINE
  5
EF
330
2
100
AcDbEntity
  8
ANCON-BOLT
100
AcDbLine
 10
28.15534610749947
 20
-154.7469392428883
 30
0.0
 11
40.0
 21
-154.7469392428882
 31
0.0
  0
ARC
  5
F0
330
2
100
AcDbEntity
  8
ANCON-BOLT
100
AcDbCircle
 10
24.63882254112931
 20
-159.0078460986734
 30
0.0
 40
3.516523566370364
100
AcDbArc
 50
302.3800650937876
 51
57.61993490621683
  0
LINE
  5
F1
330
2
100
AcDbEntity
  8
ANCON-BOLT
100
AcDbLine
 10
18.89992749874923
 20
-156.0380916448471
 30
0.0
 11
26.52203694124969
 21
-156.0380916448471
 31
0.0
  0
LINE
  5
F2
330
2
100
AcDbEntity
  8
ANCON-BOLT
100
AcDbLine
 10
18.89992749873928
 20
-161.977600552499
 30
0.0
 11
26.52203694128437
 21
-161.977600552499
 31
0.0
  0
LINE
  5
F3
330
2
100
AcDbEntity
  8
ANCON-BOLT
100
AcDbLine
 10
38.91112722249999
 20
-155.8358120203882
 30
0.0
 11
40.0
 21
-154.7469392428882
 31
0.0
  0
ARC
  5
F4
330
2
100
AcDbEntity
  8
ANCON-BOLT
100
AcDbCircle
 10
20.78314189886717
 20
-140.992153901325
 30
0.0
 40
3.516523566367697
100
AcDbArc
 50
122.380065093762
 51
237.619934906323
  0
LINE
  5
F5
330
2
100
AcDbEntity
  8
ANCON-WINDPOST
100
AcDbLine
 10
8.0
 20
-124.9999999999999
 30
0.0
 11
11.0
 21
-127.9999999999999
 31
0.0
  0
LINE
  5
102
330
2
100
AcDbEntity
  8
ANCON-WINDPOST
100
AcDbLine
 10
8.0
 20
-137.0
 30
0.0
 11
11.0
 21
-140.0
 31
0.0
  0
LINE
  5
104
330
2
100
AcDbEntity
  8
ANCON-WINDPOST
100
AcDbLine
 10
11.0
 20
-146.0
 30
0.0
 11
8.0
 21
-149.0
 31
0.0
  0
LINE
  5
105
330
2
100
AcDbEntity
  8
ANCON-WINDPOST
100
AcDbLine
 10
8.0
 20
-143.0
 30
0.0
 11
11.0
 21
-140.0
 31
0.0
  0
LINE
  5
106
330
2
100
AcDbEntity
  8
ANCON-WINDPOST
100
AcDbLine
 10
11.0
 20
-146.0
 30
0.0
 11
8.0
 21
-143.0
 31
0.0
  0
LINE
  5
107
330
2
100
AcDbEntity
  8
ANCON-WINDPOST
100
AcDbLine
 10
11.0
 20
-134.0
 30
0.0
 11
8.0
 21
-137.0
 31
0.0
  0
LINE
  5
108
330
2
100
AcDbEntity
  8
ANCON-WINDPOST
100
AcDbLine
 10
8.0
 20
-130.9999999999999
 30
0.0
 11
11.0
 21
-127.9999999999999
 31
0.0
  0
LINE
  5
109
330
2
100
AcDbEntity
  8
ANCON-WINDPOST
100
AcDbLine
 10
11.0
 20
-133.9999999999999
 30
0.0
 11
8.0
 21
-130.9999999999999
 31
0.0
  0
LINE
  5
10A
330
2
100
AcDbEntity
  8
ANCON-BOLT
100
AcDbLine
 10
13.99999999999997
 20
-130.0
 30
0.0
 11
8.999999999999971
 21
-130.0
 31
0.0
  0
LINE
  5
10B
330
2
100
AcDbEntity
  8
ANCON-BOLT
100
AcDbLine
 10
17.26661833249946
 20
-133.6669083374999
 30
0.0
 11
13.99999999999997
 21
-133.6669083374999
 31
0.0
  0
LINE
  5
10C
330
2
100
AcDbEntity
  8
ANCON-WINDPOST
100
AcDbLine
 10
8.0
 20
-112.9999999999999
 30
0.0
 11
11.0
 21
-115.9999999999999
 31
0.0
  0
LINE
  5
10D
330
2
100
AcDbEntity
  8
ANCON-WINDPOST
100
AcDbLine
 10
11.0
 20
-121.9999999999999
 30
0.0
 11
8.0
 21
-124.9999999999999
 31
0.0
  0
LINE
  5
10E
330
2
100
AcDbEntity
  8
ANCON-WINDPOST
100
AcDbLine
 10
8.0
 20
-118.9999999999999
 30
0.0
 11
11.0
 21
-115.9999999999999
 31
0.0
  0
LINE
  5
10F
330
2
100
AcDbEntity
  8
ANCON-WINDPOST
100
AcDbLine
 10
11.0
 20
-121.9999999999999
 30
0.0
 11
8.0
 21
-118.9999999999999
 31
0.0
  0
LINE
  5
110
330
2
100
AcDbEntity
  8
ANCON-WINDPOST
100
AcDbLine
 10
11.0
 20
-109.9999999999999
 30
0.0
 11
8.0
 21
-112.9999999999999
 31
0.0
  0
LINE
  5
111
330
2
100
AcDbEntity
  8
ANCON-WINDPOST
100
AcDbLine
 10
6.0
 20
-109.9999999999999
 30
0.0
 11
11.0
 21
-109.9999999999999
 31
0.0
  0
LINE
  5
112
330
2
100
AcDbEntity
  8
ANCON-BOLT
100
AcDbLine
 10
28.15534610749947
 20
-143.8386117578932
 30
0.0
 11
38.91112722250005
 21
-143.8386117578933
 31
0.0
  0
LINE
  5
113
330
2
100
AcDbEntity
  8
ANCON-BOLT
100
AcDbLine
 10
28.15534610749947
 20
-144.9274845353932
 30
0.0
 11
40.0
 21
-144.9274845353932
 31
0.0
  0
ARC
  5
114
330
2
100
AcDbEntity
  8
ANCON-BOLT
100
AcDbCircle
 10
24.63882254112931
 20
-140.992153901326
 30
0.0
 40
3.516523566370156
100
AcDbArc
 50
302.3800650937798
 51
57.6199349062147
  0
LINE
  5
115
330
2
100
AcDbEntity
  8
ANCON-BOLT
100
AcDbLine
 10
18.89992749874923
 20
-143.9619083551525
 30
0.0
 11
26.52203694124969
 21
-143.9619083551525
 31
0.0
  0
LINE
  5
116
330
2
100
AcDbEntity
  8
ANCON-BOLT
100
AcDbLine
 10
18.89992749875543
 20
-138.0223994475009
 30
0.0
 11
26.52203694122866
 21
-138.0223994475009
 31
0.0
  0
LINE
  5
117
330
2
100
AcDbEntity
  8
ANCON-BOLT
100
AcDbLine
 10
38.91112722249999
 20
-143.8386117578932
 30
0.0
 11
40.0
 21
-144.9274845353932
 31
0.0
  0
LINE
  5
118
330
2
100
AcDbEntity
  8
ANCON-TIE
100
AcDbLine
 10
85.00440866282003
 20
-147.75
 30
0.0
 11
92.50440866282003
 21
-143.75
 31
0.0
  0
LINE
  5
119
330
2
100
AcDbEntity
  8
ANCON-TIE
100
AcDbLine
 10
85.00440866282003
 20
-150.2499999999999
 30
0.0
 11
92.50440866282003
 21
-146.25
 31
0.0
  0
LINE
  5
11A
330
2
100
AcDbEntity
  8
ANCON-TIE
100
AcDbLine
 10
70.00000000000006
 20
-146.25
 30
0.0
 11
77.50440866282002
 21
-146.25
 31
0.0
  0
LINE
  5
11B
330
2
100
AcDbEntity
  8
ANCON-TIE
100
AcDbLine
 10
70.00000000000006
 20
-143.75
 30
0.0
 11
77.50440866282002
 21
-143.75
 31
0.0
  0
LINE
  5
11C
330
2
100
AcDbEntity
  8
ANCON-TIE
100
AcDbLine
 10
77.50440866282002
 20
-143.75
 30
0.0
 11
85.00440866282003
 21
-147.75
 31
0.0
  0
LINE
  5
11D
330
2
100
AcDbEntity
  8
ANCON-TIE
100
AcDbLine
 10
77.50440866282002
 20
-146.25
 30
0.0
 11
85.00440866282003
 21
-150.2499999999999
 31
0.0
  0
LINE
  5
11E
330
2
100
AcDbEntity
  8
ANCON-MASONRY
100
AcDbLine
 10
202.4999999999999
 20
-215.0
 30
0.0
 11
202.4999999999999
 21
-150.0
 31
0.0
  0
LINE
  5
11F
330
2
100
AcDbEntity
  8
ANCON-TIE
100
AcDbLine
 10
165.0
 20
-143.75
 30
0.0
 11
165.0
 21
-146.25
 31
0.0
  0
LINE
  5
120
330
2
100
AcDbEntity
  8
ANCON-MASONRY
100
AcDbLine
 10
100.0
 20
-75.0
 30
0.0
 11
202.4999999999999
 21
-75.0
 31
0.0
  0
LINE
  5
121
330
2
100
AcDbEntity
  8
ANCON-MASONRY
100
AcDbLine
 10
100.0
 20
-65.0
 30
0.0
 11
202.4999999999999
 21
-65.0
 31
0.0
  0
LINE
  5
122
330
2
100
AcDbEntity
  8
ANCON-TIE
100
AcDbLine
 10
92.50440866282003
 20
78.75
 30
0.0
 11
165.0
 21
78.75
 31
0.0
  0
LINE
  5
123
330
2
100
AcDbEntity
  8
ANCON-MASONRY
100
AcDbLine
 10
100.0
 20
75.0
 30
0.0
 11
202.4999999999999
 21
75.0
 31
0.0
  0
LINE
  5
124
330
2
100
AcDbEntity
  8
ANCON-MASONRY
100
AcDbLine
 10
100.0
 20
0.0
 30
0.0
 11
202.4999999999999
 21
0.0
 31
0.0
  0
LINE
  5
125
330
2
100
AcDbEntity
  8
ANCON-MASONRY
100
AcDbLine
 10
100.0
 20
10.0
 30
0.0
 11
202.4999999999999
 21
10.0
 31
0.0
  0
LINE
  5
126
330
2
100
AcDbEntity
  8
ANCON-WINDPOST
100
AcDbLine
 10
8.0
 20
-11.00000000000002
 30
0.0
 11
11.0
 21
-14.00000000000003
 31
0.0
  0
LINE
  5
127
330
2
100
AcDbEntity
  8
ANCON-BOLT
100
AcDbLine
 10
13.99999999999997
 20
19.99999999999997
 30
0.0
 11
13.99999999999997
 21
-20.00000000000003
 31
0.0
  0
LINE
  5
128
330
2
100
AcDbEntity
  8
ANCON-BOLT
100
AcDbLine
 10
13.99999999999997
 20
16.33309166250003
 30
0.0
 11
13.99999999999997
 21
-16.33309166250009
 31
0.0
  0
LINE
  5
129
330
2
100
AcDbEntity
  8
ANCON-BOLT
100
AcDbLine
 10
17.26661833249946
 20
16.33309166250003
 30
0.0
 11
17.26661833249946
 21
-16.33309166250009
 31
0.0
  0
LINE
  5
12A
330
2
100
AcDbEntity
  8
ANCON-WINDPOST
100
AcDbLine
 10
6.0
 20
40.0
 30
0.0
 11
6.0
 21
-40.0
 31
0.0
  0
LINE
  5
131
330
2
100
AcDbEntity
  8
ANCON-MASONRY
100
AcDbLine
 10
100.0
 20
-65.0
 30
0.0
 11
100.0
 21
0.0
 31
0.0
  0
LINE
  5
132
330
2
100
AcDbEntity
  8
ANCON-WINDPOST
100
AcDbLine
 10
8.0
 20
-35.00000000000005
 30
0.0
 11
11.0
 21
-38.00000000000006
 31
0.0
  0
LINE
  5
133
330
2
100
AcDbEntity
  8
ANCON-WINDPOST
100
AcDbLine
 10
9.000000000000099
 20
-40.0
 30
0.0
 11
6.0
 21
-40.0
 31
0.0
  0
LINE
  5
134
330
2
100
AcDbEntity
  8
ANCON-WINDPOST
100
AcDbLine
 10
9.000000000000099
 20
-40.0
 30
0.0
 11
11.0
 21
-38.00000000000006
 31
0.0
  0
LINE
  5
13C
330
2
100
AcDbEntity
  8
ANCON-WINDPOST
100
AcDbLine
 10
8.0
 20
-23.00000000000002
 30
0.0
 11
11.0
 21
-26.00000000000003
 31
0.0
  0
LINE
  5
13D
330
2
100
AcDbEntity
  8
ANCON-WINDPOST
100
AcDbLine
 10
8.0
 20
-29.00000000000003
 30
0.0
 11
11.0
 21
-26.00000000000003
 31
0.0
  0
LINE
  5
13E
330
2
100
AcDbEntity
  8
ANCON-WINDPOST
100
AcDbLine
 10
11.0
 20
-32.00000000000005
 30
0.0
 11
8.0
 21
-35.00000000000005
 31
0.0
  0
LINE
  5
13F
330
2
100
AcDbEntity
  8
ANCON-WINDPOST
100
AcDbLine
 10
11.0
 20
-32.00000000000002
 30
0.0
 11
8.0
 21
-29.00000000000003
 31
0.0
  0
LINE
  5
140
330
2
100
AcDbEntity
  8
ANCON-WINDPOST
100
AcDbLine
 10
11.0
 20
-20.00000000000003
 30
0.0
 11
8.0
 21
-17.00000000000002
 31
0.0
  0
LINE
  5
141
330
2
100
AcDbEntity
  8
ANCON-WINDPOST
100
AcDbLine
 10
8.0
 20
-17.00000000000002
 30
0.0
 11
11.0
 21
-14.00000000000003
 31
0.0
  0
LINE
  5
142
330
2
100
AcDbEntity
  8
ANCON-WINDPOST
100
AcDbLine
 10
11.0
 20
-20.00000000000003
 30
0.0
 11
8.0
 21
-23.00000000000002
 31
0.0
  0
LINE
  5
143
330
2
100
AcDbEntity
  8
ANCON-BOLT
100
AcDbLine
 10
13.99999999999997
 20
-16.33309166250009
 30
0.0
 11
17.26661833249946
 21
-16.33309166250009
 31
0.0
  0
LINE
  5
144
330
2
100
AcDbEntity
  8
ANCON-BOLT
100
AcDbLine
 10
13.99999999999997
 20
-20.00000000000003
 30
0.0
 11
11.0
 21
-20.00000000000003
 31
0.0
  0
LINE
  5
145
330
2
100
AcDbEntity
  8
ANCON-WINDPOST
100
AcDbLine
 10
70.00000000000006
 20
50.00000000000011
 30
0.0
 11
0.0
 21
50.0
 31
0.0
  0
LINE
  5
146
330
2
100
AcDbEntity
  8
ANCON-WINDPOST
100
AcDbLine
 10
8.0
 20
31.0
 30
0.0
 11
11.0
 21
34.0
 31
0.0
  0
ARC
  5
147
330
2
100
AcDbEntity
  8
ANCON-BOLT
100
AcDbCircle
 10
20.78314189886717
 20
9.007846098674946
 30
0.0
 40
3.516523566367697
100
AcDbArc
 50
122.380065093762
 51
237.619934906323
  0
ARC
  5
148
330
2
100
AcDbEntity
  8
ANCON-BOLT
100
AcDbCircle
 10
29.24421888499356
 20
0.00000000000054
 30
0.0
 40
11.9776005524936
100
AcDbArc
 50
149.727358681085
 51
210.2726413189181
  0
ARC
  5
149
330
2
100
AcDbEntity
  8
ANCON-BOLT
100
AcDbCircle
 10
20.78314189886717
 20
-9.007846098674662
 30
0.0
 40
3.516523566367934
100
AcDbArc
 50
122.3800650936792
 51
237.6199349062345
  0
LINE
  5
14A
330
2
100
AcDbEntity
  8
ANCON-WINDPOST
100
AcDbLine
 10
8.0
 20
12.99999999999997
 30
0.0
 11
11.0
 21
9.999999999999971
 31
0.0
  0
LINE
  5
157
330
2
100
AcDbEntity
  8
ANCON-WINDPOST
100
AcDbLine
 10
8.0
 20
0.9999999999999715
 30
0.0
 11
11.0
 21
-2.000000000000028
 31
0.0
  0
LINE
  5
158
330
2
100
AcDbEntity
  8
ANCON-BOLT
100
AcDbLine
 10
17.26661833249946
 20
9.00784609867324
 30
0.0
 11
17.26661833249946
 21
-9.007846098672843
 31
0.0
  0
LINE
  5
159
330
2
100
AcDbEntity
  8
ANCON-WINDPOST
100
AcDbLine
 10
8.0
 20
-5.000000000000028
 30
0.0
 11
11.0
 21
-2.000000000000028
 31
0.0
  0
LINE
  5
15A
330
2
100
AcDbEntity
  8
ANCON-WINDPOST
100
AcDbLine
 10
11.0
 20
-8.000000000000028
 30
0.0
 11
8.0
 21
-11.00000000000002
 31
0.0
  0
LINE
  5
15B
330
2
100
AcDbEntity
  8
ANCON-WINDPOST
100
AcDbLine
 10
11.0
 20
-8.000000000000028
 30
0.0
 11
8.0
 21
-5.000000000000028
 31
0.0
  0
LINE
  5
15C
330
2
100
AcDbEntity
  8
ANCON-WINDPOST
100
AcDbLine
 10
11.0
 20
3.999999999999971
 30
0.0
 11
8.0
 21
6.999999999999971
 31
0.0
  0
LINE
  5
15D
330
2
100
AcDbEntity
  8
ANCON-WINDPOST
100
AcDbLine
 10
8.0
 20
6.999999999999971
 30
0.0
 11
11.0
 21
9.999999999999971
 31
0.0
  0
LINE
  5
15E
330
2
100
AcDbEntity
  8
ANCON-WINDPOST
100
AcDbLine
 10
11.0
 20
3.999999999999971
 30
0.0
 11
8.0
 21
0.9999999999999715
 31
0.0
  0
LINE
  5
166
330
2
100
AcDbEntity
  8
ANCON-WINDPOST
100
AcDbLine
 10
8.0
 20
25.0
 30
0.0
 11
11.0
 21
22.0
 31
0.0
  0
LINE
  5
167
330
2
100
AcDbEntity
  8
ANCON-WINDPOST
100
AcDbLine
 10
11.0
 20
16.0
 30
0.0
 11
8.0
 21
19.0
 31
0.0
  0
LINE
  5
168
330
2
100
AcDbEntity
  8
ANCON-WINDPOST
100
AcDbLine
 10
8.0
 20
19.0
 30
0.0
 11
11.0
 21
22.0
 31
0.0
  0
LINE
  5
169
330
2
100
AcDbEntity
  8
ANCON-WINDPOST
100
AcDbLine
 10
11.0
 20
15.99999999999997
 30
0.0
 11
8.0
 21
12.99999999999997
 31
0.0
  0
LINE
  5
16A
330
2
100
AcDbEntity
  8
ANCON-BOLT
100
AcDbLine
 10
17.26661833249946
 20
16.33309166250003
 30
0.0
 11
13.99999999999997
 21
16.33309166250003
 31
0.0
  0
LINE
  5
16B
330
2
100
AcDbEntity
  8
ANCON-BOLT
100
AcDbLine
 10
13.99999999999997
 20
19.99999999999997
 30
0.0
 11
8.999999999999971
 21
19.99999999999997
 31
0.0
  0
LINE
  5
16C
330
2
100
AcDbEntity
  8
ANCON-WINDPOST
100
AcDbLine
 10
11.0
 20
28.0
 30
0.0
 11
8.0
 21
31.0
 31
0.0
  0
LINE
  5
16D
330
2
100
AcDbEntity
  8
ANCON-WINDPOST
100
AcDbLine
 10
11.0
 20
28.0
 30
0.0
 11
8.0
 21
25.0
 31
0.0
  0
ARC
  5
16E
330
2
100
AcDbEntity
  8
ANCON-BOLT
100
AcDbCircle
 10
24.63882254112931
 20
9.007846098673979
 30
0.0
 40
3.516523566370156
100
AcDbArc
 50
302.3800650937798
 51
57.6199349062147
  0
LINE
  5
16F
330
2
100
AcDbEntity
  8
ANCON-BOLT
100
AcDbLine
 10
28.15534610749947
 20
5.072515464606709
 30
0.0
 11
40.0
 21
5.072515464606709
 31
0.0
  0
LINE
  5
170
330
2
100
AcDbEntity
  8
ANCON-BOLT
100
AcDbLine
 10
28.15534610749947
 20
6.16138824210671
 30
0.0
 11
38.91112722250005
 21
6.161388242106596
 31
0.0
  0
LINE
  5
171
330
2
100
AcDbEntity
  8
ANCON-BOLT
100
AcDbLine
 10
28.15534610749947
 20
-4.746939242888373
 30
0.0
 11
40.0
 21
-4.746939242888316
 31
0.0
  0
LINE
  5
172
330
2
100
AcDbEntity
  8
ANCON-BOLT
100
AcDbLine
 10
28.15534610749947
 20
-5.835812020388317
 30
0.0
 11
38.91112722249991
 21
-5.835812020388317
 31
0.0
  0
LINE
  5
173
330
2
100
AcDbEntity
  8
ANCON-BOLT
100
AcDbLine
 10
28.15534610749947
 20
-0.0000000000000853
 30
0.0
 11
28.15534610749947
 21
-6.533236664999691
 31
0.0
  0
ARC
  5
174
330
2
100
AcDbEntity
  8
ANCON-BOLT
100
AcDbCircle
 10
16.17774555500668
 20
0.00000000000054
 30
0.0
 40
11.97760055249255
100
AcDbArc
 50
329.7273586810804
 51
30.27264131891897
  0
LINE
  5
175
330
2
100
AcDbEntity
  8
ANCON-BOLT
100
AcDbLine
 10
28.15534610749947
 20
9.00784609867324
 30
0.0
 11
28.15534610749947
 21
-9.007846098672843
 31
0.0
  0
ARC
  5
176
330
2
100
AcDbEntity
  8
ANCON-BOLT
100
AcDbCircle
 10
24.63882254112931
 20
-9.007846098673468
 30
0.0
 40
3.516523566370364
100
AcDbArc
 50
302.3800650937876
 51
57.61993490621683
  0
LINE
  5
177
330
2
100
AcDbEntity
  8
ANCON-BOLT
100
AcDbLine
 10
18.89992749874923
 20
-6.038091644847128
 30
0.0
 11
26.52203694124969
 21
-6.038091644847128
 31
0.0
  0
LINE
  5
178
330
2
100
AcDbEntity
  8
ANCON-BOLT
100
AcDbLine
 10
18.89992749873928
 20
-11.97760055249907
 30
0.0
 11
26.52203694128437
 21
-11.97760055249907
 31
0.0
  0
LINE
  5
179
330
2
100
AcDbEntity
  8
ANCON-BOLT
100
AcDbLine
 10
18.89992749874923
 20
6.038091644847469
 30
0.0
 11
26.52203694124969
 21
6.038091644847469
 31
0.0
  0
LINE
  5
17A
330
2
100
AcDbEntity
  8
ANCON-BOLT
100
AcDbLine
 10
38.91112722249999
 20
6.161388242106596
 30
0.0
 11
38.91112722249999
 21
-5.835812020388317
 31
0.0
  0
LINE
  5
17B
330
2
100
AcDbEntity
  8
ANCON-BOLT
100
AcDbLine
 10
40.0
 20
5.072515464606709
 30
0.0
 11
40.0
 21
-4.746939242888316
 31
0.0
  0
LINE
  5
17C
330
2
100
AcDbEntity
  8
ANCON-BOLT
100
AcDbLine
 10
38.91112722249999
 20
-5.835812020388317
 30
0.0
 11
40.0
 21
-4.746939242888316
 31
0.0
  0
LINE
  5
17D
330
2
100
AcDbEntity
  8
ANCON-BOLT
100
AcDbLine
 10
38.91112722249999
 20
6.16138824210671
 30
0.0
 11
40.0
 21
5.072515464606709
 31
0.0
  0
LINE
  5
17E
330
2
100
AcDbEntity
  8
ANCON-BOLT
100
AcDbLine
 10
18.89992749875543
 20
11.97760055249901
 30
0.0
 11
26.52203694122866
 21
11.97760055249901
 31
0.0
  0
LINE
  5
17F
330
2
100
AcDbEntity
  8
ANCON-WINDPOST
100
AcDbLine
 10
6.0
 20
40.0
 30
0.0
 11
11.0
 21
40.0
 31
0.0
  0
LINE
  5
180
330
2
100
AcDbEntity
  8
ANCON-WINDPOST
100
AcDbLine
 10
11.0
 20
40.0
 30
0.0
 11
8.0
 21
37.0
 31
0.0
  0
LINE
  5
181
330
2
100
AcDbEntity
  8
ANCON-WINDPOST
100
AcDbLine
 10
8.0
 20
37.0
 30
0.0
 11
11.0
 21
34.0
 31
0.0
  0
LINE
  5
182
330
2
100
AcDbEntity
  8
ANCON-MASONRY
100
AcDbLine
 10
100.0
 20
10.0
 30
0.0
 11
100.0
 21
75.0
 31
0.0
  0
LINE
  5
183
330
2
100
AcDbEntity
  8
ANCON-TIE
100
AcDbLine
 10
85.00440866282003
 20
74.75
 30
0.0
 11
92.50440866282003
 21
78.75
 31
0.0
  0
LINE
  5
184
330
2
100
AcDbEntity
  8
ANCON-TIE
100
AcDbLine
 10
70.00000000000006
 20
78.75
 30
0.0
 11
77.50440866282002
 21
78.75
 31
0.0
  0
LINE
  5
185
330
2
100
AcDbEntity
  8
ANCON-TIE
100
AcDbLine
 10
77.50440866282002
 20
78.75
 30
0.0
 11
85.00440866282003
 21
74.75
 31
0.0
  0
LINE
  5
186
330
2
100
AcDbEntity
  8
ANCON-MASONRY
100
AcDbLine
 10
202.4999999999999
 20
-65.0
 30
0.0
 11
202.4999999999999
 21
0.0
 31
0.0
  0
LINE
  5
187
330
2
100
AcDbEntity
  8
ANCON-MASONRY
100
AcDbLine
 10
202.4999999999999
 20
10.0
 30
0.0
 11
202.4999999999999
 21
75.0
 31
0.0
  0
LINE
  5
188
330
2
100
AcDbEntity
  8
ANCON-TIE
100
AcDbLine
 10
-65.0
 20
303.75
 30
0.0
 11
10.00000000000005
 21
303.75
 31
0.0
  0
LINE
  5
189
330
2
100
AcDbEntity
  8
ANCON-TIE
100
AcDbLine
 10
-65.0
 20
306.25
 30
0.0
 11
10.00000000000005
 21
306.25
 31
0.0
  0
LINE
  5
18A
330
2
100
AcDbEntity
  8
ANCON-MASONRY
100
AcDbLine
 10
0.0
 20
310.0
 30
0.0
 11
-140.0
 21
310.0
 31
0.0
  0
LINE
  5
18B
330
2
100
AcDbEntity
  8
ANCON-MASONRY
100
AcDbLine
 10
0.0
 20
300.0
 30
0.0
 11
-140.0
 21
300.0
 31
0.0
  0
LINE
  5
18C
330
2
100
AcDbEntity
  8
ANCON-MASONRY
100
AcDbLine
 10
0.0
 20
85.0
 30
0.0
 11
-140.0
 21
85.0
 31
0.0
  0
LINE
  5
18D
330
2
100
AcDbEntity
  8
ANCON-MASONRY
100
AcDbLine
 10
-140.0
 20
85.0
 30
0.0
 11
-140.0
 21
300.0
 31
0.0
  0
LINE
  5
18E
330
2
100
AcDbEntity
  8
ANCON-MASONRY
100
AcDbLine
 10
-140.0
 20
310.0
 30
0.0
 11
-140.0
 21
375.0
 31
0.0
  0
LINE
  5
18F
330
2
100
AcDbEntity
  8
ANCON-TIE
100
AcDbLine
 10
-65.0
 20
306.25
 30
0.0
 11
-65.0
 21
303.75
 31
0.0
  0
LINE
  5
190
330
2
100
AcDbEntity
  8
ANCON-MASONRY
100
AcDbLine
 10
100.0
 20
235.0
 30
0.0
 11
100.0
 21
300.0
 31
0.0
  0
LINE
  5
191
330
2
100
AcDbEntity
  8
ANCON-MASONRY
100
AcDbLine
 10
202.4999999999999
 20
235.0
 30
0.0
 11
202.4999999999999
 21
300.0
 31
0.0
  0
LINE
  5
192
330
2
100
AcDbEntity
  8
ANCON-MASONRY
100
AcDbLine
 10
0.0
 20
85.0
 30
0.0
 11
0.0
 21
300.0
 31
0.0
  0
LINE
  5
193
330
2
100
AcDbEntity
  8
ANCON-TIE
100
AcDbLine
 10
92.50440866282003
 20
81.25
 30
0.0
 11
165.0
 21
81.25
 31
0.0
  0
LINE
  5
194
330
2
100
AcDbEntity
  8
ANCON-MASONRY
100
AcDbLine
 10
100.0
 20
235.0
 30
0.0
 11
202.4999999999999
 21
235.0
 31
0.0
  0
LINE
  5
195
330
2
100
AcDbEntity
  8
ANCON-MASONRY
100
AcDbLine
 10
100.0
 20
160.0
 30
0.0
 11
202.4999999999999
 21
160.0
 31
0.0
  0
LINE
  5
196
330
2
100
AcDbEntity
  8
ANCON-MASONRY
100
AcDbLine
 10
100.0
 20
225.0
 30
0.0
 11
202.4999999999999
 21
225.0
 31
0.0
  0
LINE
  5
197
330
2
100
AcDbEntity
  8
ANCON-MASONRY
100
AcDbLine
 10
100.0
 20
150.0
 30
0.0
 11
202.4999999999999
 21
150.0
 31
0.0
  0
LINE
  5
198
330
2
100
AcDbEntity
  8
ANCON-MASONRY
100
AcDbLine
 10
100.0
 20
85.0
 30
0.0
 11
202.4999999999999
 21
85.0
 31
0.0
  0
LINE
  5
199
330
2
100
AcDbEntity
  8
ANCON-MASONRY
100
AcDbLine
 10
100.0
 20
160.0
 30
0.0
 11
100.0
 21
225.0
 31
0.0
  0
LINE
  5
19A
330
2
100
AcDbEntity
  8
ANCON-MASONRY
100
AcDbLine
 10
100.0
 20
85.0
 30
0.0
 11
100.0
 21
150.0
 31
0.0
  0
LINE
  5
19B
330
2
100
AcDbEntity
  8
ANCON-TIE
100
AcDbLine
 10
70.00000000000006
 20
81.25
 30
0.0
 11
77.50440866282002
 21
81.25
 31
0.0
  0
LINE
  5
19C
330
2
100
AcDbEntity
  8
ANCON-MASONRY
100
AcDbLine
 10
202.4999999999999
 20
160.0
 30
0.0
 11
202.4999999999999
 21
225.0
 31
0.0
  0
LINE
  5
19D
330
2
100
AcDbEntity
  8
ANCON-MASONRY
100
AcDbLine
 10
202.4999999999999
 20
85.0
 30
0.0
 11
202.4999999999999
 21
150.0
 31
0.0
  0
LINE
  5
19E
330
2
100
AcDbEntity
  8
ANCON-TIE
100
AcDbLine
 10
92.50440866282003
 20
303.75
 30
0.0
 11
165.0
 21
303.75
 31
0.0
  0
LINE
  5
19F
330
2
100
AcDbEntity
  8
ANCON-TIE
100
AcDbLine
 10
92.50440866282003
 20
306.25
 30
0.0
 11
165.0
 21
306.25
 31
0.0
  0
LINE
  5
1A0
330
2
100
AcDbEntity
  8
ANCON-MASONRY
100
AcDbLine
 10
100.0
 20
310.0
 30
0.0
 11
202.4999999999999
 21
310.0
 31
0.0
  0
LINE
  5
1A1
330
2
100
AcDbEntity
  8
ANCON-MASONRY
100
AcDbLine
 10
100.0
 20
300.0
 30
0.0
 11
202.4999999999999
 21
300.0
 31
0.0
  0
LINE
  5
1A2
330
2
100
AcDbEntity
  8
ANCON-MASONRY
100
AcDbLine
 10
0.0
 20
310.0
 30
0.0
 11
0.0
 21
375.0
 31
0.0
  0
LINE
  5
1A3
330
2
100
AcDbEntity
  8
ANCON-MASONRY
100
AcDbLine
 10
100.0
 20
310.0
 30
0.0
 11
100.0
 21
375.0
 31
0.0
  0
LINE
  5
1A4
330
2
100
AcDbEntity
  8
ANCON-TIE
100
AcDbLine
 10
85.00440866282003
 20
299.75
 30
0.0
 11
92.50440866282003
 21
303.75
 31
0.0
  0
LINE
  5
1A5
330
2
100
AcDbEntity
  8
ANCON-TIE
100
AcDbLine
 10
85.00440866282003
 20
302.2499999999999
 30
0.0
 11
92.50440866282003
 21
306.25
 31
0.0
  0
LINE
  5
1A6
330
2
100
AcDbEntity
  8
ANCON-TIE
100
AcDbLine
 10
70.00000000000006
 20
306.25
 30
0.0
 11
77.50440866282002
 21
306.25
 31
0.0
  0
LINE
  5
1A7
330
2
100
AcDbEntity
  8
ANCON-TIE
100
AcDbLine
 10
70.00000000000006
 20
303.75
 30
0.0
 11
77.50440866282002
 21
303.75
 31
0.0
  0
LINE
  5
1A8
330
2
100
AcDbEntity
  8
ANCON-TIE
100
AcDbLine
 10
77.50440866282002
 20
303.75
 30
0.0
 11
85.00440866282003
 21
299.75
 31
0.0
  0
LINE
  5
1A9
330
2
100
AcDbEntity
  8
ANCON-TIE
100
AcDbLine
 10
77.50440866282002
 20
306.25
 30
0.0
 11
85.00440866282003
 21
302.2499999999999
 31
0.0
  0
LINE
  5
1AA
330
2
100
AcDbEntity
  8
ANCON-MASONRY
100
AcDbLine
 10
202.4999999999999
 20
310.0
 30
0.0
 11
202.4999999999999
 21
375.0
 31
0.0
  0
LINE
  5
1AB
330
2
100
AcDbEntity
  8
ANCON-TIE
100
AcDbLine
 10
165.0
 20
306.25
 30
0.0
 11
165.0
 21
303.75
 31
0.0
  0
TEXT
  5
1AC
330
2
100
AcDbEntity
  8
ANCON-TEXT
100
AcDbText
 10
291.1977291172466
 20
25.87218949421793
 30
0.0
 40
9.0
  1
long post and a wind load (UDL) of 7.1 kilonewtons.
  7
ROMANS
100
AcDbText
  0
TEXT
  5
1AE
330
2
100
AcDbEntity
  8
ANCON-TEXT
100
AcDbText
 10
291.1977291172466
 20
40.44361806564649
 30
0.0
 40
9.0
  1
Ancon Building Products will design a system to a 2.5 metre
  7
ROMANS
100
AcDbText
  0
TEXT
  5
1AF
330
2
100
AcDbEntity
  8
ANCON-TEXT
100
AcDbText
 10
291.1977291172466
 20
55.01504663707504
 30
0.0
 40
9.0
  1
by the height/wind load (UDL) ie. WP1F/2.5/7.1
  7
ROMANS
100
AcDbText
  0
TEXT
  5
1B0
330
2
100
AcDbEntity
  8
ANCON-TEXT
100
AcDbText
 10
291.1977291172466
 20
69.5864752085036
 30
0.0
 40
9.0
  1
Ancon WP1F can be specified
  7
ROMANS
100
AcDbText
  0
TEXT
  5
1B1
330
2
100
AcDbEntity
  8
ANCON-TEXT
100
AcDbText
 10
291.1977291172466
 20
104.2342989891988
 30
0.0
 40
9.0
  1
Ancon windpost type WP1F
  7
ROMANS
100
AcDbText
  0
TEXT
  5
217
330
2
100
AcDbEntity
  8
ANCON-TEXT
100
AcDbText
 10
-269.9642742254031
 20
-142.8649049575596
 30
0.0
 40
9.0
  1

  7
ROMANS
100
AcDbText
  0
TEXT
  5
218
330
2
100
AcDbEntity
  8
ANCON-TEXT
100
AcDbText
 10
-269.9642742254031
 20
-157.2220083278471
 30
0.0
 40
9.0
  1

  7
ROMANS
100
AcDbText
  0
TEXT
  5
219
330
2
100
AcDbEntity
  8
ANCON-TEXT
100
AcDbText
 10
-214.9416822971216
 20
-128.1293209117559
 30
0.0
 40
9.0
  1

  7
ROMANS
100
AcDbText
  0
LINE
  5
267
330
2
100
AcDbEntity
  8
ANCON-CHANNEL
100
AcDbLine
 10
-19.00000000000003
 20
-5.593993898178098
 30
0.0
 11
-83.50000000000003
 21
-5.593993898178098
 31
0.0
  0
LINE
  5
268
330
2
100
AcDbEntity
  8
ANCON-CHANNEL
100
AcDbLine
 10
-19.00000000000005
 20
5.919570119896462
 30
0.0
 11
-83.49999999999997
 21
5.919570119896448
 31
0.0
  0
LINE
  5
269
330
2
100
AcDbEntity
  8
ANCON-CHANNEL
100
AcDbLine
 10
-83.50000000000003
 20
-5.593993898178091
 30
0.0
 11
-83.50000000000003
 21
5.919570119896462
 31
0.0
  0
LINE
  5
26A
330
2
100
AcDbEntity
  8
ANCON-CHANNEL
100
AcDbLine
 10
-5.19141071765469
 20
-9.760316265357957
 30
0.0
 11
-16.50000000000003
 21
-5.593993898178098
 31
0.0
  0
LINE
  5
26B
330
2
100
AcDbEntity
  8
ANCON-CHANNEL
100
AcDbLine
 10
-16.50000000000003
 20
5.919570119896448
 30
0.0
 11
-5.191410717654747
 21
10.08589248707629
 31
0.0
  0
LINE
  5
26C
330
2
100
AcDbEntity
  8
ANCON-CHANNEL
100
AcDbLine
 10
-6.055674114723075
 20
-12.10617405740075
 30
0.0
 11
-17.36426339706844
 21
-7.939851690220869
 31
0.0
  0
LINE
  5
26D
330
2
100
AcDbEntity
  8
ANCON-CHANNEL
100
AcDbLine
 10
-17.36426339706844
 20
8.265427911939255
 30
0.0
 11
-6.055674114723132
 21
12.43175027911907
 31
0.0
  0
LINE
  5
26E
330
2
100
AcDbEntity
  8
ANCON-CHANNEL
100
AcDbLine
 10
-48.28589345062275
 20
-5.593993898178091
 30
0.0
 11
-48.28589345062278
 21
-3.679608180157686
 31
0.0
  0
LINE
  5
26F
330
2
100
AcDbEntity
  8
ANCON-CHANNEL
100
AcDbLine
 10
-49.28589345062275
 20
-5.593993898178084
 30
0.0
 11
-49.28589345062277
 21
-3.632885669079087
 31
0.0
  0
LINE
  5
270
330
2
100
AcDbEntity
  8
ANCON-CHANNEL
100
AcDbLine
 10
-59.33128721408209
 20
-5.593993898178084
 30
0.0
 11
-59.33128721408209
 21
-3.632885669079087
 31
0.0
  0
LINE
  5
271
330
2
100
AcDbEntity
  8
ANCON-CHANNEL
100
AcDbLine
 10
-58.33128721408204
 20
-5.593993898178091
 30
0.0
 11
-58.33128721408209
 21
-3.679608180157686
 31
0.0
  0
LINE
  5
272
330
2
100
AcDbEntity
  8
ANCON-CHANNEL
100
AcDbLine
 10
-68.37668097754132
 20
-5.593993898178091
 30
0.0
 11
-68.37668097754138
 21
-3.679608180157686
 31
0.0
  0
LINE
  5
273
330
2
100
AcDbEntity
  8
ANCON-CHANNEL
100
AcDbLine
 10
-69.37668097754138
 20
-5.593993898178084
 30
0.0
 11
-69.37668097754138
 21
-3.632885669079087
 31
0.0
  0
LINE
  5
274
330
2
100
AcDbEntity
  8
ANCON-CHANNEL
100
AcDbLine
 10
-70.37668097754139
 20
2.627797117789668
 30
0.0
 11
-70.37668097754139
 21
5.919570119896462
 31
0.0
  0
LINE
  5
275
330
2
100
AcDbEntity
  8
ANCON-CHANNEL
100
AcDbLine
 10
-70.37668097754139
 20
0.2450000508589483
 30
0.0
 11
-70.37668097754139
 21
1.973695745953534
 31
0.0
  0
LINE
  5
276
330
2
100
AcDbEntity
  8
ANCON-CHANNEL
100
AcDbLine
 10
-69.37668097754138
 20
1.319594374117457
 30
0.0
 11
-69.37668097754138
 21
3.468784398960906
 31
0.0
  0
LINE
  5
277
330
2
100
AcDbEntity
  8
ANCON-CHANNEL
100
AcDbLine
 10
-68.37668097754138
 20
1.646645060035496
 30
0.0
 11
-68.37668097754138
 21
3.655670308296009
 31
0.0
  0
LINE
  5
278
330
2
100
AcDbEntity
  8
ANCON-CHANNEL
100
AcDbLine
 10
-68.37668097754138
 20
-2.27796179265465
 30
0.0
 11
-68.37668097754138
 21
0.8523789116164266
 31
0.0
  0
LINE
  5
279
330
2
100
AcDbEntity
  8
ANCON-CHANNEL
100
AcDbLine
 10
-70.37668097754139
 20
-2.558291345820578
 30
0.0
 11
-70.37668097754139
 21
-0.3623801882249609
 31
0.0
  0
LINE
  5
27A
330
2
100
AcDbEntity
  8
ANCON-CHANNEL
100
AcDbLine
 10
-69.37668097754138
 20
-2.97878567556944
 30
0.0
 11
-69.37668097754138
 21
0.8523789116164266
 31
0.0
  0
LINE
  5
27B
330
2
100
AcDbEntity
  8
ANCON-CHANNEL
100
AcDbLine
 10
-60.3312872140821
 20
2.627797117789668
 30
0.0
 11
-60.3312872140821
 21
6.169606903549151
 31
0.0
  0
LINE
  5
27C
330
2
100
AcDbEntity
  8
ANCON-CHANNEL
100
AcDbLine
 10
-60.3312872140821
 20
0.2450000508589483
 30
0.0
 11
-60.3312872140821
 21
1.973695745953534
 31
0.0
  0
LINE
  5
27D
330
2
100
AcDbEntity
  8
ANCON-CHANNEL
100
AcDbLine
 10
-58.33128721408209
 20
-2.27796179265465
 30
0.0
 11
-58.33128721408209
 21
0.8523789116164266
 31
0.0
  0
LINE
  5
27E
330
2
100
AcDbEntity
  8
ANCON-CHANNEL
100
AcDbLine
 10
-58.33128721408209
 20
1.646645060035496
 30
0.0
 11
-58.33128721408209
 21
3.655670308296009
 31
0.0
  0
LINE
  5
27F
330
2
100
AcDbEntity
  8
ANCON-CHANNEL
100
AcDbLine
 10
-59.33128721408209
 20
1.319594374117457
 30
0.0
 11
-59.33128721408209
 21
3.468784398960906
 31
0.0
  0
LINE
  5
280
330
2
100
AcDbEntity
  8
ANCON-CHANNEL
100
AcDbLine
 10
-60.3312872140821
 20
-2.558291345820578
 30
0.0
 11
-60.3312872140821
 21
-0.3623801882249609
 31
0.0
  0
LINE
  5
281
330
2
100
AcDbEntity
  8
ANCON-CHANNEL
100
AcDbLine
 10
-59.33128721408209
 20
-2.97878567556944
 30
0.0
 11
-59.33128721408209
 21
0.8523789116164266
 31
0.0
  0
LINE
  5
282
330
2
100
AcDbEntity
  8
ANCON-CHANNEL
100
AcDbLine
 10
-50.28589345062278
 20
2.627797117789668
 30
0.0
 11
-50.28589345062278
 21
6.169606903549151
 31
0.0
  0
LINE
  5
283
330
2
100
AcDbEntity
  8
ANCON-CHANNEL
100
AcDbLine
 10
-50.28589345062278
 20
0.2450000508589483
 30
0.0
 11
-50.28589345062278
 21
1.973695745953534
 31
0.0
  0
LINE
  5
284
330
2
100
AcDbEntity
  8
ANCON-CHANNEL
100
AcDbLine
 10
-49.28589345062277
 20
1.319594374117457
 30
0.0
 11
-49.28589345062277
 21
3.468784398960906
 31
0.0
  0
LINE
  5
285
330
2
100
AcDbEntity
  8
ANCON-CHANNEL
100
AcDbLine
 10
-48.28589345062278
 20
1.646645060035496
 30
0.0
 11
-48.28589345062278
 21
3.655670308296009
 31
0.0
  0
LINE
  5
286
330
2
100
AcDbEntity
  8
ANCON-CHANNEL
100
AcDbLine
 10
-48.28589345062278
 20
-2.27796179265465
 30
0.0
 11
-48.28589345062278
 21
0.8523789116164266
 31
0.0
  0
LINE
  5
287
330
2
100
AcDbEntity
  8
ANCON-CHANNEL
100
AcDbLine
 10
-50.28589345062278
 20
-2.558291345820578
 30
0.0
 11
-50.28589345062278
 21
-0.3623801882249609
 31
0.0
  0
LINE
  5
288
330
2
100
AcDbEntity
  8
ANCON-CHANNEL
100
AcDbLine
 10
-49.28589345062277
 20
-2.97878567556944
 30
0.0
 11
-49.28589345062277
 21
0.8523789116164266
 31
0.0
  0
LINE
  5
289
330
2
100
AcDbEntity
  8
ANCON-CHANNEL
100
AcDbLine
 10
-19.00000000000003
 20
0.1627881108591964
 30
0.0
 11
-19.00000000000005
 21
-5.593993898178091
 31
0.0
  0
LINE
  5
28A
330
2
100
AcDbEntity
  8
ANCON-CHANNEL
100
AcDbLine
 10
-13.50000000000008
 20
-5.593993898178084
 30
0.0
 11
-13.50000000000005
 21
5.919570119896448
 31
0.0
  0
LINE
  5
28B
330
2
100
AcDbEntity
  8
ANCON-CHANNEL
100
AcDbLine
 10
-16.50000000000003
 20
-5.593993898178091
 30
0.0
 11
-16.50000000000005
 21
5.919570119896448
 31
0.0
  0
LINE
  5
28C
330
2
100
AcDbEntity
  8
ANCON-CHANNEL
100
AcDbLine
 10
-29.19510592370423
 20
-5.593993898178084
 30
0.0
 11
-29.19510592370423
 21
-3.632885669079087
 31
0.0
  0
LINE
  5
28D
330
2
100
AcDbEntity
  8
ANCON-CHANNEL
100
AcDbLine
 10
-28.1951059237042
 20
-5.593993898178091
 30
0.0
 11
-28.19510592370423
 21
-3.679608180157686
 31
0.0
  0
LINE
  5
28E
330
2
100
AcDbEntity
  8
ANCON-CHANNEL
100
AcDbLine
 10
-39.24049968716349
 20
-5.593993898178084
 30
0.0
 11
-39.24049968716349
 21
-3.632885669079087
 31
0.0
  0
LINE
  5
28F
330
2
100
AcDbEntity
  8
ANCON-CHANNEL
100
AcDbLine
 10
-38.24049968716346
 20
-5.593993898178091
 30
0.0
 11
-38.24049968716349
 21
-3.679608180157686
 31
0.0
  0
LINE
  5
290
330
2
100
AcDbEntity
  8
ANCON-CHANNEL
100
AcDbLine
 10
-16.50000000000003
 20
-5.593993898178091
 30
0.0
 11
-13.50000000000002
 21
-5.593993898178084
 31
0.0
  0
ARC
  5
291
330
2
100
AcDbEntity
  8
ANCON-CHANNEL
100
AcDbCircle
 10
-16.50000000000005
 20
-5.593993898178091
 30
0.0
 40
2.5
100
AcDbArc
 50
180.0
 51
249.7751405688317
  0
LINE
  5
292
330
2
100
AcDbEntity
  8
ANCON-CHANNEL
100
AcDbLine
 10
-40.24049968716349
 20
2.627797117789668
 30
0.0
 11
-40.24049968716349
 21
5.919570119896462
 31
0.0
  0
LINE
  5
293
330
2
100
AcDbEntity
  8
ANCON-CHANNEL
100
AcDbLine
 10
-40.24049968716349
 20
0.2450000508589483
 30
0.0
 11
-40.24049968716349
 21
1.973695745953534
 31
0.0
  0
LINE
  5
294
330
2
100
AcDbEntity
  8
ANCON-CHANNEL
100
AcDbLine
 10
-39.24049968716349
 20
1.319594374117457
 30
0.0
 11
-39.24049968716349
 21
3.468784398960906
 31
0.0
  0
LINE
  5
295
330
2
100
AcDbEntity
  8
ANCON-CHANNEL
100
AcDbLine
 10
-38.24049968716349
 20
-2.27796179265465
 30
0.0
 11
-38.24049968716349
 21
0.8523789116164266
 31
0.0
  0
LINE
  5
296
330
2
100
AcDbEntity
  8
ANCON-CHANNEL
100
AcDbLine
 10
-38.24049968716349
 20
1.646645060035496
 30
0.0
 11
-38.24049968716349
 21
3.655670308296009
 31
0.0
  0
LINE
  5
297
330
2
100
AcDbEntity
  8
ANCON-CHANNEL
100
AcDbLine
 10
-40.24049968716349
 20
-2.558291345820578
 30
0.0
 11
-40.24049968716349
 21
-0.3623801882249609
 31
0.0
  0
LINE
  5
298
330
2
100
AcDbEntity
  8
ANCON-CHANNEL
100
AcDbLine
 10
-39.24049968716349
 20
-2.97878567556944
 30
0.0
 11
-39.24049968716349
 21
0.8523789116164266
 31
0.0
  0
LINE
  5
299
330
2
100
AcDbEntity
  8
ANCON-CHANNEL
100
AcDbLine
 10
-29.19510592370423
 20
1.319594374117457
 30
0.0
 11
-29.19510592370423
 21
3.468784398960906
 31
0.0
  0
LINE
  5
29A
330
2
100
AcDbEntity
  8
ANCON-CHANNEL
100
AcDbLine
 10
-28.19510592370423
 20
1.646645060035496
 30
0.0
 11
-28.19510592370423
 21
3.655670308296009
 31
0.0
  0
LINE
  5
29B
330
2
100
AcDbEntity
  8
ANCON-CHANNEL
100
AcDbLine
 10
-28.19510592370423
 20
-2.27796179265465
 30
0.0
 11
-28.19510592370423
 21
0.8523789116164266
 31
0.0
  0
LINE
  5
29C
330
2
100
AcDbEntity
  8
ANCON-CHANNEL
100
AcDbLine
 10
-29.19510592370423
 20
-2.97878567556944
 30
0.0
 11
-29.19510592370423
 21
0.8523789116164266
 31
0.0
  0
LINE
  5
29D
330
2
100
AcDbEntity
  8
ANCON-CHANNEL
100
AcDbLine
 10
-30.19510592370423
 20
2.627797117789668
 30
0.0
 11
-30.19510592370423
 21
6.169606903549151
 31
0.0
  0
LINE
  5
29E
330
2
100
AcDbEntity
  8
ANCON-CHANNEL
100
AcDbLine
 10
-30.19510592370423
 20
0.2450000508589483
 30
0.0
 11
-30.19510592370423
 21
1.973695745953534
 31
0.0
  0
LINE
  5
29F
330
2
100
AcDbEntity
  8
ANCON-CHANNEL
100
AcDbLine
 10
-30.19510592370423
 20
-2.558291345820578
 30
0.0
 11
-30.19510592370423
 21
-0.3623801882249609
 31
0.0
  0
ARC
  5
2A0
330
2
100
AcDbEntity
  8
ANCON-CHANNEL
100
AcDbCircle
 10
-16.50000000000005
 20
5.919570119896476
 30
0.0
 40
2.5
100
AcDbArc
 50
110.2248594311682
 51
180.0
  0
LINE
  5
2A1
330
2
100
AcDbEntity
  8
ANCON-CHANNEL
100
AcDbLine
 10
-16.50000000000005
 20
5.919570119896448
 30
0.0
 11
-13.50000000000005
 21
5.919570119896448
 31
0.0
  0
LINE
  5
2A2
330
2
100
AcDbEntity
  8
ANCON-CHANNEL
100
AcDbLine
 10
-19.00000000000003
 20
0.1627881108591964
 30
0.0
 11
-19.00000000000005
 21
5.919570119896476
 31
0.0
  0
LINE
  5
2A3
330
2
100
AcDbEntity
  8
ANCON-CHANNEL
100
AcDbLine
 10
-2.5
 20
-6.837211889140803
 30
0.0
 11
-0.0000000000000284
 21
-6.83721188914081
 31
0.0
  0
LINE
  5
2A4
330
2
100
AcDbEntity
  8
ANCON-CHANNEL
100
AcDbLine
 10
-0.0000000000000284
 20
-6.83721188914081
 30
0.0
 11
-0.0000000000000284
 21
-7.337211889140803
 31
0.0
  0
ARC
  5
2A5
330
2
100
AcDbEntity
  8
ANCON-CHANNEL
100
AcDbCircle
 10
-4.499999999999971
 20
-7.88363003172374
 30
0.0
 40
4.5
100
AcDbArc
 50
249.7751405688317
 51
0.0
  0
ARC
  5
2A6
330
2
100
AcDbEntity
  8
ANCON-CHANNEL
100
AcDbCircle
 10
-4.499999999999971
 20
-7.88363003172374
 30
0.0
 40
2.0
100
AcDbArc
 50
249.7751405688317
 51
0.0
  0
LINE
  5
2A7
330
2
100
AcDbEntity
  8
ANCON-CHANNEL
100
AcDbLine
 10
-2.499999999999971
 20
-7.88363003172374
 30
0.0
 11
-2.5
 21
-6.837211889140803
 31
0.0
  0
LINE
  5
2A8
330
2
100
AcDbEntity
  8
ANCON-CHANNEL
100
AcDbLine
 10
-0.0000000000000284
 20
-7.337211889140803
 30
0.0
 11
0.0
 21
-7.88363003172374
 31
0.0
  0
LINE
  5
2A9
330
2
100
AcDbEntity
  8
ANCON-CHANNEL
100
AcDbLine
 10
0.0
 20
-7.883630031723733
 30
0.0
 11
0.0
 21
-6.837211889140803
 31
0.0
  0
LINE
  5
2AA
330
2
100
AcDbEntity
  8
ANCON-CHANNEL
100
AcDbLine
 10
-2.500000000000056
 20
7.162788110859196
 30
0.0
 11
-0.0000000000000284
 21
7.162788110859196
 31
0.0
  0
LINE
  5
2AB
330
2
100
AcDbEntity
  8
ANCON-CHANNEL
100
AcDbLine
 10
0.0
 20
7.162788110859196
 30
0.0
 11
0.0
 21
8.209206253442076
 31
0.0
  0
LINE
  5
2AC
330
2
100
AcDbEntity
  8
ANCON-CHANNEL
100
AcDbLine
 10
-2.500000000000056
 20
7.162788110859196
 30
0.0
 11
-2.500000000000028
 21
8.209206253442076
 31
0.0
  0
ARC
  5
2AD
330
2
100
AcDbEntity
  8
ANCON-CHANNEL
100
AcDbCircle
 10
-4.500000000000028
 20
8.209206253442076
 30
0.0
 40
4.5
100
AcDbArc
 50
0.0
 51
110.2248594311682
  0
ARC
  5
2AE
330
2
100
AcDbEntity
  8
ANCON-CHANNEL
100
AcDbCircle
 10
-4.500000000000028
 20
8.209206253442076
 30
0.0
 40
2.0
100
AcDbArc
 50
0.0
 51
110.2248594311682
  0
LINE
  5
2AF
330
2
100
AcDbEntity
  8
ANCON-CHANNEL
100
AcDbLine
 10
-0.0000000000000284
 20
7.662788110859196
 30
0.0
 11
-0.0000000000000284
 21
7.162788110859196
 31
0.0
  0
LINE
  5
2B0
330
2
100
AcDbEntity
  8
ANCON-CHANNEL
100
AcDbLine
 10
-0.0000000000000284
 20
7.162788110859196
 30
0.0
 11
-0.0000000000000284
 21
7.662788110859196
 31
0.0
  0
LINE
  5
2B1
330
2
100
AcDbEntity
  8
ANCON-CHANNEL
100
AcDbLine
 10
-19.00000000000003
 20
-155.593993898178
 30
0.0
 11
-83.50000000000003
 21
-155.593993898178
 31
0.0
  0
LINE
  5
2B2
330
2
100
AcDbEntity
  8
ANCON-CHANNEL
100
AcDbLine
 10
-19.00000000000005
 20
-144.0804298801035
 30
0.0
 11
-83.49999999999997
 21
-144.0804298801035
 31
0.0
  0
LINE
  5
2B3
330
2
100
AcDbEntity
  8
ANCON-CHANNEL
100
AcDbLine
 10
-83.50000000000003
 20
-155.593993898178
 30
0.0
 11
-83.50000000000003
 21
-144.0804298801035
 31
0.0
  0
LINE
  5
2B4
330
2
100
AcDbEntity
  8
ANCON-CHANNEL
100
AcDbLine
 10
-5.19141071765469
 20
-159.7603162653579
 30
0.0
 11
-16.50000000000003
 21
-155.593993898178
 31
0.0
  0
LINE
  5
2B5
330
2
100
AcDbEntity
  8
ANCON-CHANNEL
100
AcDbLine
 10
-16.50000000000003
 20
-144.0804298801035
 30
0.0
 11
-5.191410717654747
 21
-139.9141075129237
 31
0.0
  0
LINE
  5
2B6
330
2
100
AcDbEntity
  8
ANCON-CHANNEL
100
AcDbLine
 10
-6.055674114723075
 20
-162.1061740574007
 30
0.0
 11
-17.36426339706844
 21
-157.9398516902208
 31
0.0
  0
LINE
  5
2B7
330
2
100
AcDbEntity
  8
ANCON-CHANNEL
100
AcDbLine
 10
-17.36426339706844
 20
-141.7345720880607
 30
0.0
 11
-6.055674114723132
 21
-137.5682497208808
 31
0.0
  0
LINE
  5
2B8
330
2
100
AcDbEntity
  8
ANCON-CHANNEL
100
AcDbLine
 10
-48.28589345062275
 20
-155.593993898178
 30
0.0
 11
-48.28589345062278
 21
-153.6796081801576
 31
0.0
  0
LINE
  5
2B9
330
2
100
AcDbEntity
  8
ANCON-CHANNEL
100
AcDbLine
 10
-49.28589345062275
 20
-155.593993898178
 30
0.0
 11
-49.28589345062277
 21
-153.632885669079
 31
0.0
  0
LINE
  5
2BA
330
2
100
AcDbEntity
  8
ANCON-CHANNEL
100
AcDbLine
 10
-59.33128721408209
 20
-155.593993898178
 30
0.0
 11
-59.33128721408209
 21
-153.632885669079
 31
0.0
  0
LINE
  5
2BB
330
2
100
AcDbEntity
  8
ANCON-CHANNEL
100
AcDbLine
 10
-58.33128721408204
 20
-155.593993898178
 30
0.0
 11
-58.33128721408209
 21
-153.6796081801576
 31
0.0
  0
LINE
  5
2BC
330
2
100
AcDbEntity
  8
ANCON-CHANNEL
100
AcDbLine
 10
-68.37668097754132
 20
-155.593993898178
 30
0.0
 11
-68.37668097754138
 21
-153.6796081801576
 31
0.0
  0
LINE
  5
2BD
330
2
100
AcDbEntity
  8
ANCON-CHANNEL
100
AcDbLine
 10
-69.37668097754138
 20
-155.593993898178
 30
0.0
 11
-69.37668097754138
 21
-153.632885669079
 31
0.0
  0
LINE
  5
2BE
330
2
100
AcDbEntity
  8
ANCON-CHANNEL
100
AcDbLine
 10
-70.37668097754139
 20
-147.3722028822103
 30
0.0
 11
-70.37668097754139
 21
-144.0804298801035
 31
0.0
  0
LINE
  5
2BF
330
2
100
AcDbEntity
  8
ANCON-CHANNEL
100
AcDbLine
 10
-70.37668097754139
 20
-149.754999949141
 30
0.0
 11
-70.37668097754139
 21
-148.0263042540464
 31
0.0
  0
LINE
  5
2C0
330
2
100
AcDbEntity
  8
ANCON-CHANNEL
100
AcDbLine
 10
-69.37668097754138
 20
-148.6804056258825
 30
0.0
 11
-69.37668097754138
 21
-146.531215601039
 31
0.0
  0
LINE
  5
2C1
330
2
100
AcDbEntity
  8
ANCON-CHANNEL
100
AcDbLine
 10
-68.37668097754138
 20
-148.3533549399644
 30
0.0
 11
-68.37668097754138
 21
-146.3443296917039
 31
0.0
  0
LINE
  5
2C2
330
2
100
AcDbEntity
  8
ANCON-CHANNEL
100
AcDbLine
 10
-68.37668097754138
 20
-152.2779617926546
 30
0.0
 11
-68.37668097754138
 21
-149.1476210883835
 31
0.0
  0
LINE
  5
2C3
330
2
100
AcDbEntity
  8
ANCON-CHANNEL
100
AcDbLine
 10
-70.37668097754139
 20
-152.5582913458205
 30
0.0
 11
-70.37668097754139
 21
-150.3623801882249
 31
0.0
  0
LINE
  5
2C4
330
2
100
AcDbEntity
  8
ANCON-CHANNEL
100
AcDbLine
 10
-69.37668097754138
 20
-152.9787856755694
 30
0.0
 11
-69.37668097754138
 21
-149.1476210883835
 31
0.0
  0
LINE
  5
2C5
330
2
100
AcDbEntity
  8
ANCON-CHANNEL
100
AcDbLine
 10
-60.3312872140821
 20
-147.3722028822103
 30
0.0
 11
-60.3312872140821
 21
-143.8303930964508
 31
0.0
  0
LINE
  5
2C6
330
2
100
AcDbEntity
  8
ANCON-CHANNEL
100
AcDbLine
 10
-60.3312872140821
 20
-149.754999949141
 30
0.0
 11
-60.3312872140821
 21
-148.0263042540464
 31
0.0
  0
LINE
  5
2C7
330
2
100
AcDbEntity
  8
ANCON-CHANNEL
100
AcDbLine
 10
-58.33128721408209
 20
-152.2779617926546
 30
0.0
 11
-58.33128721408209
 21
-149.1476210883835
 31
0.0
  0
LINE
  5
2C8
330
2
100
AcDbEntity
  8
ANCON-CHANNEL
100
AcDbLine
 10
-58.33128721408209
 20
-148.3533549399644
 30
0.0
 11
-58.33128721408209
 21
-146.3443296917039
 31
0.0
  0
LINE
  5
2C9
330
2
100
AcDbEntity
  8
ANCON-CHANNEL
100
AcDbLine
 10
-59.33128721408209
 20
-148.6804056258825
 30
0.0
 11
-59.33128721408209
 21
-146.531215601039
 31
0.0
  0
LINE
  5
2CA
330
2
100
AcDbEntity
  8
ANCON-CHANNEL
100
AcDbLine
 10
-60.3312872140821
 20
-152.5582913458205
 30
0.0
 11
-60.3312872140821
 21
-150.3623801882249
 31
0.0
  0
LINE
  5
2CB
330
2
100
AcDbEntity
  8
ANCON-CHANNEL
100
AcDbLine
 10
-59.33128721408209
 20
-152.9787856755694
 30
0.0
 11
-59.33128721408209
 21
-149.1476210883835
 31
0.0
  0
LINE
  5
2CC
330
2
100
AcDbEntity
  8
ANCON-CHANNEL
100
AcDbLine
 10
-50.28589345062278
 20
-147.3722028822103
 30
0.0
 11
-50.28589345062278
 21
-143.8303930964508
 31
0.0
  0
LINE
  5
2CD
330
2
100
AcDbEntity
  8
ANCON-CHANNEL
100
AcDbLine
 10
-50.28589345062278
 20
-149.754999949141
 30
0.0
 11
-50.28589345062278
 21
-148.0263042540464
 31
0.0
  0
LINE
  5
2CE
330
2
100
AcDbEntity
  8
ANCON-CHANNEL
100
AcDbLine
 10
-49.28589345062277
 20
-148.6804056258825
 30
0.0
 11
-49.28589345062277
 21
-146.531215601039
 31
0.0
  0
LINE
  5
2CF
330
2
100
AcDbEntity
  8
ANCON-CHANNEL
100
AcDbLine
 10
-48.28589345062278
 20
-148.3533549399644
 30
0.0
 11
-48.28589345062278
 21
-146.3443296917039
 31
0.0
  0
LINE
  5
2D0
330
2
100
AcDbEntity
  8
ANCON-CHANNEL
100
AcDbLine
 10
-48.28589345062278
 20
-152.2779617926546
 30
0.0
 11
-48.28589345062278
 21
-149.1476210883835
 31
0.0
  0
LINE
  5
2D1
330
2
100
AcDbEntity
  8
ANCON-CHANNEL
100
AcDbLine
 10
-50.28589345062278
 20
-152.5582913458205
 30
0.0
 11
-50.28589345062278
 21
-150.3623801882249
 31
0.0
  0
LINE
  5
2D2
330
2
100
AcDbEntity
  8
ANCON-CHANNEL
100
AcDbLine
 10
-49.28589345062277
 20
-152.9787856755694
 30
0.0
 11
-49.28589345062277
 21
-149.1476210883835
 31
0.0
  0
LINE
  5
2D3
330
2
100
AcDbEntity
  8
ANCON-CHANNEL
100
AcDbLine
 10
-19.00000000000003
 20
-149.8372118891407
 30
0.0
 11
-19.00000000000005
 21
-155.593993898178
 31
0.0
  0
LINE
  5
2D4
330
2
100
AcDbEntity
  8
ANCON-CHANNEL
100
AcDbLine
 10
-13.50000000000008
 20
-155.593993898178
 30
0.0
 11
-13.50000000000005
 21
-144.0804298801035
 31
0.0
  0
LINE
  5
2D5
330
2
100
AcDbEntity
  8
ANCON-CHANNEL
100
AcDbLine
 10
-16.50000000000003
 20
-155.593993898178
 30
0.0
 11
-16.50000000000005
 21
-144.0804298801035
 31
0.0
  0
LINE
  5
2D6
330
2
100
AcDbEntity
  8
ANCON-CHANNEL
100
AcDbLine
 10
-29.19510592370423
 20
-155.593993898178
 30
0.0
 11
-29.19510592370423
 21
-153.632885669079
 31
0.0
  0
LINE
  5
2D7
330
2
100
AcDbEntity
  8
ANCON-CHANNEL
100
AcDbLine
 10
-28.1951059237042
 20
-155.593993898178
 30
0.0
 11
-28.19510592370423
 21
-153.6796081801576
 31
0.0
  0
LINE
  5
2D8
330
2
100
AcDbEntity
  8
ANCON-CHANNEL
100
AcDbLine
 10
-39.24049968716349
 20
-155.593993898178
 30
0.0
 11
-39.24049968716349
 21
-153.632885669079
 31
0.0
  0
LINE
  5
2D9
330
2
100
AcDbEntity
  8
ANCON-CHANNEL
100
AcDbLine
 10
-38.24049968716346
 20
-155.593993898178
 30
0.0
 11
-38.24049968716349
 21
-153.6796081801576
 31
0.0
  0
LINE
  5
2DA
330
2
100
AcDbEntity
  8
ANCON-CHANNEL
100
AcDbLine
 10
-16.50000000000003
 20
-155.593993898178
 30
0.0
 11
-13.50000000000002
 21
-155.593993898178
 31
0.0
  0
ARC
  5
2DB
330
2
100
AcDbEntity
  8
ANCON-CHANNEL
100
AcDbCircle
 10
-16.50000000000005
 20
-155.593993898178
 30
0.0
 40
2.5
100
AcDbArc
 50
180.0
 51
249.7751405688317
  0
LINE
  5
2DC
330
2
100
AcDbEntity
  8
ANCON-CHANNEL
100
AcDbLine
 10
-40.24049968716349
 20
-147.3722028822103
 30
0.0
 11
-40.24049968716349
 21
-144.0804298801035
 31
0.0
  0
LINE
  5
2DD
330
2
100
AcDbEntity
  8
ANCON-CHANNEL
100
AcDbLine
 10
-40.24049968716349
 20
-149.754999949141
 30
0.0
 11
-40.24049968716349
 21
-148.0263042540464
 31
0.0
  0
LINE
  5
2DE
330
2
100
AcDbEntity
  8
ANCON-CHANNEL
100
AcDbLine
 10
-39.24049968716349
 20
-148.6804056258825
 30
0.0
 11
-39.24049968716349
 21
-146.531215601039
 31
0.0
  0
LINE
  5
2DF
330
2
100
AcDbEntity
  8
ANCON-CHANNEL
100
AcDbLine
 10
-38.24049968716349
 20
-152.2779617926546
 30
0.0
 11
-38.24049968716349
 21
-149.1476210883835
 31
0.0
  0
LINE
  5
2E0
330
2
100
AcDbEntity
  8
ANCON-CHANNEL
100
AcDbLine
 10
-38.24049968716349
 20
-148.3533549399644
 30
0.0
 11
-38.24049968716349
 21
-146.3443296917039
 31
0.0
  0
LINE
  5
2E1
330
2
100
AcDbEntity
  8
ANCON-CHANNEL
100
AcDbLine
 10
-40.24049968716349
 20
-152.5582913458205
 30
0.0
 11
-40.24049968716349
 21
-150.3623801882249
 31
0.0
  0
LINE
  5
2E2
330
2
100
AcDbEntity
  8
ANCON-CHANNEL
100
AcDbLine
 10
-39.24049968716349
 20
-152.9787856755694
 30
0.0
 11
-39.24049968716349
 21
-149.1476210883835
 31
0.0
  0
LINE
  5
2E3
330
2
100
AcDbEntity
  8
ANCON-CHANNEL
100
AcDbLine
 10
-29.19510592370423
 20
-148.6804056258825
 30
0.0
 11
-29.19510592370423
 21
-146.531215601039
 31
0.0
  0
LINE
  5
2E4
330
2
100
AcDbEntity
  8
ANCON-CHANNEL
100
AcDbLine
 10
-28.19510592370423
 20
-148.3533549399644
 30
0.0
 11
-28.19510592370423
 21
-146.3443296917039
 31
0.0
  0
LINE
  5
2E5
330
2
100
AcDbEntity
  8
ANCON-CHANNEL
100
AcDbLine
 10
-28.19510592370423
 20
-152.2779617926546
 30
0.0
 11
-28.19510592370423
 21
-149.1476210883835
 31
0.0
  0
LINE
  5
2E6
330
2
100
AcDbEntity
  8
ANCON-CHANNEL
100
AcDbLine
 10
-29.19510592370423
 20
-152.9787856755694
 30
0.0
 11
-29.19510592370423
 21
-149.1476210883835
 31
0.0
  0
LINE
  5
2E7
330
2
100
AcDbEntity
  8
ANCON-CHANNEL
100
AcDbLine
 10
-30.19510592370423
 20
-147.3722028822103
 30
0.0
 11
-30.19510592370423
 21
-143.8303930964508
 31
0.0
  0
LINE
  5
2E8
330
2
100
AcDbEntity
  8
ANCON-CHANNEL
100
AcDbLine
 10
-30.19510592370423
 20
-149.754999949141
 30
0.0
 11
-30.19510592370423
 21
-148.0263042540464
 31
0.0
  0
LINE
  5
2E9
330
2
100
AcDbEntity
  8
ANCON-CHANNEL
100
AcDbLine
 10
-30.19510592370423
 20
-152.5582913458205
 30
0.0
 11
-30.19510592370423
 21
-150.3623801882249
 31
0.0
  0
ARC
  5
2EA
330
2
100
AcDbEntity
  8
ANCON-CHANNEL
100
AcDbCircle
 10
-16.50000000000005
 20
-144.0804298801035
 30
0.0
 40
2.5
100
AcDbArc
 50
110.2248594311682
 51
180.0
  0
LINE
  5
2EB
330
2
100
AcDbEntity
  8
ANCON-CHANNEL
100
AcDbLine
 10
-16.50000000000005
 20
-144.0804298801035
 30
0.0
 11
-13.50000000000005
 21
-144.0804298801035
 31
0.0
  0
LINE
  5
2EC
330
2
100
AcDbEntity
  8
ANCON-CHANNEL
100
AcDbLine
 10
-19.00000000000003
 20
-149.8372118891407
 30
0.0
 11
-19.00000000000005
 21
-144.0804298801035
 31
0.0
  0
LINE
  5
2ED
330
2
100
AcDbEntity
  8
ANCON-CHANNEL
100
AcDbLine
 10
-2.5
 20
-156.8372118891407
 30
0.0
 11
-0.0000000000000284
 21
-156.8372118891407
 31
0.0
  0
LINE
  5
2EE
330
2
100
AcDbEntity
  8
ANCON-CHANNEL
100
AcDbLine
 10
-0.0000000000000284
 20
-156.8372118891407
 30
0.0
 11
-0.0000000000000284
 21
-157.3372118891407
 31
0.0
  0
ARC
  5
2EF
330
2
100
AcDbEntity
  8
ANCON-CHANNEL
100
AcDbCircle
 10
-4.499999999999971
 20
-157.8836300317237
 30
0.0
 40
4.5
100
AcDbArc
 50
249.7751405688317
 51
0.0
  0
ARC
  5
2F0
330
2
100
AcDbEntity
  8
ANCON-CHANNEL
100
AcDbCircle
 10
-4.499999999999971
 20
-157.8836300317237
 30
0.0
 40
2.0
100
AcDbArc
 50
249.7751405688317
 51
0.0
  0
LINE
  5
2F1
330
2
100
AcDbEntity
  8
ANCON-CHANNEL
100
AcDbLine
 10
-2.499999999999971
 20
-157.8836300317237
 30
0.0
 11
-2.5
 21
-156.8372118891407
 31
0.0
  0
LINE
  5
2F2
330
2
100
AcDbEntity
  8
ANCON-CHANNEL
100
AcDbLine
 10
-0.0000000000000284
 20
-157.3372118891407
 30
0.0
 11
0.0
 21
-157.8836300317237
 31
0.0
  0
LINE
  5
2F3
330
2
100
AcDbEntity
  8
ANCON-CHANNEL
100
AcDbLine
 10
0.0
 20
-157.8836300317236
 30
0.0
 11
0.0
 21
-156.8372118891407
 31
0.0
  0
LINE
  5
2F4
330
2
100
AcDbEntity
  8
ANCON-CHANNEL
100
AcDbLine
 10
-2.500000000000056
 20
-142.8372118891407
 30
0.0
 11
-0.0000000000000284
 21
-142.8372118891407
 31
0.0
  0
LINE
  5
2F5
330
2
100
AcDbEntity
  8
ANCON-CHANNEL
100
AcDbLine
 10
0.0
 20
-142.8372118891407
 30
0.0
 11
0.0
 21
-141.7907937465578
 31
0.0
  0
LINE
  5
2F6
330
2
100
AcDbEntity
  8
ANCON-CHANNEL
100
AcDbLine
 10
-2.500000000000056
 20
-142.8372118891407
 30
0.0
 11
-2.500000000000028
 21
-141.7907937465578
 31
0.0
  0
ARC
  5
2F7
330
2
100
AcDbEntity
  8
ANCON-CHANNEL
100
AcDbCircle
 10
-4.500000000000028
 20
-141.7907937465578
 30
0.0
 40
4.5
100
AcDbArc
 50
0.0
 51
110.2248594311682
  0
ARC
  5
2F8
330
2
100
AcDbEntity
  8
ANCON-CHANNEL
100
AcDbCircle
 10
-4.500000000000028
 20
-141.7907937465578
 30
0.0
 40
2.0
100
AcDbArc
 50
0.0
 51
110.2248594311682
  0
LINE
  5
2F9
330
2
100
AcDbEntity
  8
ANCON-CHANNEL
100
AcDbLine
 10
-0.0000000000000284
 20
-142.3372118891407
 30
0.0
 11
-0.0000000000000284
 21
-142.8372118891407
 31
0.0
  0
LINE
  5
2FA
330
2
100
AcDbEntity
  8
ANCON-CHANNEL
100
AcDbLine
 10
-0.0000000000000284
 20
-142.8372118891407
 30
0.0
 11
-0.0000000000000284
 21
-142.3372118891407
 31
0.0
  0
ENDSEC
  0
SECTION
  2
OBJECTS
  0
DICTIONARY
  5
1A
330
0
100
AcDbDictionary
281
     1
  3
ACAD_GROUP
350
18
  3
ACAD_LAYOUT
350
1B5
  3
ACAD_MLINESTYLE
350
19
  3
ACAD_PLOTSETTINGS
350
1B6
  3
ACAD_PLOTSTYLENAME
350
1B3
  0
DICTIONARY
  5
18
102
{ACAD_REACTORS
330
1A
102
}
330
1A
100
AcDbDictionary
281
     1
  0
DICTIONARY
  5
1B5
102
{ACAD_REACTORS
330
1A
102
}
330
1A
100
AcDbDictionary
281
     1
  3
Layout1
350
1B8
  3
Model
350
1B7
  0
DICTIONARY
  5
19
102
{ACAD_REACTORS
330
1A
102
}
330
1A
100
AcDbDictionary
281
     1
  3
STANDARD
350
1C
  0
DICTIONARY
  5
1B6
102
{ACAD_REACTORS
330
1A
102
}
330
1A
100
AcDbDictionary
281
     1
  0
ACDBDICTIONARYWDFLT
  5
1B3
102
{ACAD_REACTORS
330
1A
102
}
330
1A
100
AcDbDictionary
281
     1
  3
Normal
350
1B4
100
AcDbDictionaryWithDefault
340
1B4
  0
LAYOUT
  5
1B8
102
{ACAD_REACTORS
330
1B5
102
}
330
1B5
100
AcDbPlotSettings
  1

  2
Ancon 2
  4

  6

 40
0.0
 41
0.0
 42
0.0
 43
0.0
 44
0.0
 45
0.0
 46
0.0
 47
0.0
 48
0.0
 49
0.0
140
0.0
141
0.0
142
1.0
143
1.0
 70
   688
 72
     0
 73
     0
 74
     5
  7

 75
    16
147
1.0
148
0.0
149
0.0
100
AcDbLayout
  1
Layout1
 70
     1
 71
     1
 10
0.0
 20
0.0
 11
420.0
 21
297.0
 12
0.0
 22
0.0
 32
0.0
 14
1.000000000000000E+20
 24
1.000000000000000E+20
 34
1.000000000000000E+20
 15
-1.000000000000000E+20
 25
-1.000000000000000E+20
 35
-1.000000000000000E+20
146
0.0
 13
0.0
 23
0.0
 33
0.0
 16
1.0
 26
0.0
 36
0.0
 17
0.0
 27
1.0
 37
0.0
 76
     0
330
7
  0
LAYOUT
  5
1B7
102
{ACAD_REACTORS
330
1B5
102
}
330
1B5
100
AcDbPlotSettings
  1

  2
Ancon 2
  4

  6

 40
0.0
 41
0.0
 42
0.0
 43
0.0
 44
0.0
 45
0.0
 46
0.0
 47
0.0
 48
0.0
 49
0.0
140
0.0
141
0.0
142
1.0
143
1.0
 70
  1712
 72
     0
 73
     0
 74
     0
  7

 75
     0
147
1.0
148
0.0
149
0.0
100
AcDbLayout
  1
Model
 70
     1
 71
     0
 10
0.0
 20
0.0
 11
12.0
 21
9.0
 12
0.0
 22
0.0
 32
0.0
 14
0.0
 24
0.0
 34
0.0
 15
0.0
 25
0.0
 35
0.0
146
0.0
 13
0.0
 23
0.0
 33
0.0
 16
1.0
 26
0.0
 36
0.0
 17
0.0
 27
1.0
 37
0.0
 76
     0
330
2
  0
MLINESTYLE
  5
1C
102
{ACAD_REACTORS
330
19
102
}
330
19
100
AcDbMlineStyle
  2
STANDARD
 70
     0
  3

 62
   256
 51
90.0
 52
90.0
 71
     2
 49
0.5
 62
   256
  6
BYLAYER
 49
-0.5
 62
   256
  6
BYLAYER
  0
ACDBPLACEHOLDER
  5
1B4
102
{ACAD_REACTORS
330
1B3
102
}
330
1B3
  0
ENDSEC
  0
EOF
