  0
SECTION
  2
HEADER
  9
$ACADVER
  1
AC1014
  9
$ACADMAINTVER
 70
     0
  9
$DWGCODEPAGE
  3
ANSI_1252
  9
$INSBASE
 10
38.487777
 20
80.565698
 30
0.0
  9
$EXTMIN
 10
-140.0
 20
-102.5
 30
0.0
  9
$EXTMAX
 10
730.367871
 20
262.5
 30
0.0
  9
$LIMMIN
 10
0.0
 20
0.0
  9
$LIMMAX
 10
420.0
 20
297.0
  9
$ORTHOMODE
 70
     1
  9
$REGENMODE
 70
     1
  9
$FILLMODE
 70
     1
  9
$QTEXTMODE
 70
     0
  9
$MIRRTEXT
 70
     1
  9
$DRAGMODE
 70
     2
  9
$LTSCALE
 40
1.0
  9
$OSMODE
 70
     1
  9
$ATTMODE
 70
     1
  9
$TEXTSIZE
 40
9.0
  9
$TRACEWID
 40
10.0
  9
$TEXTSTYLE
  7
ROMANS
  9
$CLAYER
  8
0
  9
$CELTYPE
  6
BYLAYER
  9
$CECOLOR
 62
   256
  9
$CELTSCALE
 40
1.0
  9
$DELOBJ
 70
     1
  9
$DISPSILH
 70
     0
  9
$DIMSCALE
 40
5.0
  9
$DIMASZ
 40
0.0
  9
$DIMEXO
 40
4.5
  9
$DIMDLI
 40
0.0
  9
$DIMRND
 40
1.0
  9
$DIMDLE
 40
1.25
  9
$DIMEXE
 40
1.5
  9
$DIMTP
 40
0.0
  9
$DIMTM
 40
0.0
  9
$DIMTXT
 40
1.8
  9
$DIMCEN
 40
0.0
  9
$DIMTSZ
 40
1.0
  9
$DIMTOL
 70
     0
  9
$DIMLIM
 70
     0
  9
$DIMTIH
 70
     0
  9
$DIMTOH
 70
     0
  9
$DIMSE1
 70
     0
  9
$DIMSE2
 70
     0
  9
$DIMTAD
 70
     1
  9
$DIMZIN
 70
    12
  9
$DIMBLK
  1

  9
$DIMASO
 70
     1
  9
$DIMSHO
 70
     0
  9
$DIMPOST
  1

  9
$DIMAPOST
  1

  9
$DIMALT
 70
     0
  9
$DIMALTD
 70
     2
  9
$DIMALTF
 40
0.04
  9
$DIMLFAC
 40
1.0
  9
$DIMTOFL
 70
     0
  9
$DIMTVP
 40
0.0
  9
$DIMTIX
 70
     0
  9
$DIMSOXD
 70
     0
  9
$DIMSAH
 70
     0
  9
$DIMBLK1
  1

  9
$DIMBLK2
  1

  9
$DIMSTYLE
  2
1-5
  9
$DIMCLRD
 70
     0
  9
$DIMCLRE
 70
     0
  9
$DIMCLRT
 70
     0
  9
$DIMTFAC
 40
1.25
  9
$DIMGAP
 40
0.1
  9
$DIMJUST
 70
     0
  9
$DIMSD1
 70
     0
  9
$DIMSD2
 70
     0
  9
$DIMTOLJ
 70
     1
  9
$DIMTZIN
 70
    12
  9
$DIMALTZ
 70
    12
  9
$DIMALTTZ
 70
    12
  9
$DIMFIT
 70
     5
  9
$DIMUPT
 70
     0
  9
$DIMUNIT
 70
     2
  9
$DIMDEC
 70
     2
  9
$DIMTDEC
 70
     2
  9
$DIMALTU
 70
     2
  9
$DIMALTTD
 70
     2
  9
$DIMTXSTY
  7
ROMANS
  9
$DIMAUNIT
 70
     0
  9
$LUNITS
 70
     2
  9
$LUPREC
 70
     2
  9
$SKETCHINC
 40
1.0
  9
$FILLETRAD
 40
0.0
  9
$AUNITS
 70
     0
  9
$AUPREC
 70
     4
  9
$MENU
  1
C:\ACADWIN\SUPPORT\ACAD
  9
$ELEVATION
 40
0.0
  9
$PELEVATION
 40
0.0
  9
$THICKNESS
 40
0.0
  9
$LIMCHECK
 70
     0
  9
$BLIPMODE
 70
     0
  9
$CHAMFERA
 40
0.0
  9
$CHAMFERB
 40
0.0
  9
$CHAMFERC
 40
0.0
  9
$CHAMFERD
 40
0.0
  9
$SKPOLY
 70
     0
  9
$TDCREATE
 40
2450429.655338657
  9
$TDUPDATE
 40
2451550.710465625
  9
$TDINDWG
 40
0.1511114583
  9
$TDUSRTIMER
 40
0.1511114583
  9
$USRTIMER
 70
     1
  9
$ANGBASE
 50
0.0
  9
$ANGDIR
 70
     0
  9
$PDMODE
 70
     0
  9
$PDSIZE
 40
0.0
  9
$PLINEWID
 40
0.0
  9
$COORDS
 70
     1
  9
$SPLFRAME
 70
     0
  9
$SPLINETYPE
 70
     6
  9
$SPLINESEGS
 70
     8
  9
$ATTDIA
 70
     0
  9
$ATTREQ
 70
     1
  9
$HANDLING
 70
     1
  9
$HANDSEED
  5
B5
  9
$SURFTAB1
 70
    18
  9
$SURFTAB2
 70
    18
  9
$SURFTYPE
 70
     6
  9
$SURFU
 70
    18
  9
$SURFV
 70
    18
  9
$UCSNAME
  2

  9
$UCSORG
 10
0.0
 20
0.0
 30
0.0
  9
$UCSXDIR
 10
1.0
 20
0.0
 30
0.0
  9
$UCSYDIR
 10
0.0
 20
1.0
 30
0.0
  9
$PUCSNAME
  2

  9
$PUCSORG
 10
0.0
 20
0.0
 30
0.0
  9
$PUCSXDIR
 10
1.0
 20
0.0
 30
0.0
  9
$PUCSYDIR
 10
0.0
 20
1.0
 30
0.0
  9
$USERI1
 70
     0
  9
$USERI2
 70
     0
  9
$USERI3
 70
     0
  9
$USERI4
 70
     0
  9
$USERI5
 70
     0
  9
$USERR1
 40
0.0
  9
$USERR2
 40
0.0
  9
$USERR3
 40
0.0
  9
$USERR4
 40
0.0
  9
$USERR5
 40
0.0
  9
$WORLDVIEW
 70
     1
  9
$SHADEDGE
 70
     3
  9
$SHADEDIF
 70
    70
  9
$TILEMODE
 70
     1
  9
$MAXACTVP
 70
    16
  9
$PINSBASE
 10
0.0
 20
0.0
 30
0.0
  9
$PLIMCHECK
 70
     0
  9
$PEXTMIN
 10
1.000000E+20
 20
1.000000E+20
 30
1.000000E+20
  9
$PEXTMAX
 10
-1.000000E+20
 20
-1.000000E+20
 30
-1.000000E+20
  9
$PLIMMIN
 10
0.0
 20
0.0
  9
$PLIMMAX
 10
420.0
 20
297.0
  9
$UNITMODE
 70
     0
  9
$VISRETAIN
 70
     0
  9
$PLINEGEN
 70
     0
  9
$PSLTSCALE
 70
     1
  9
$TREEDEPTH
 70
  3020
  9
$PICKSTYLE
 70
     1
  9
$CMLSTYLE
  2
STANDARD
  9
$CMLJUST
 70
     0
  9
$CMLSCALE
 40
1.0
  9
$PROXYGRAPHICS
 70
     1
  9
$MEASUREMENT
 70
     0
  0
ENDSEC
  0
SECTION
  2
CLASSES
  0
CLASS
  1
DICTIONARYVAR
  2
AcDbDictionaryVar
  3
"AutoCAD"
 90
        0
280
     0
281
     0
  0
CLASS
  1
LWPOLYLINE
  2
AcDbPolyline
  3
"AutoCAD"
 90
        0
280
     0
281
     1
  0
ENDSEC
  0
SECTION
  2
TABLES
  0
TABLE
  2
VPORT
  5
12
100
AcDbSymbolTable
 70
     2
  0
VPORT
  5
B4
100
AcDbSymbolTableRecord
100
AcDbViewportTableRecord
  2
*ACTIVE
 70
     0
 10
0.0
 20
0.0
 11
1.0
 21
1.0
 12
312.65744
 22
86.950138
 13
0.0
 23
0.0
 14
5.0
 24
5.0
 15
10.0
 25
10.0
 16
0.0
 26
0.0
 36
1.0
 17
0.0
 27
0.0
 37
0.0
 40
880.49859
 41
1.465261
 42
50.0
 43
0.0
 44
0.0
 50
0.0
 51
0.0
 71
     0
 72
 20000
 73
     1
 74
     1
 75
     0
 76
     0
 77
     0
 78
     0
  0
ENDTAB
  0
TABLE
  2
LTYPE
  5
D
100
AcDbSymbolTable
 70
     1
  0
LTYPE
  5
E
100
AcDbSymbolTableRecord
100
AcDbLinetypeTableRecord
  2
BYBLOCK
 70
     0
  3

 72
    65
 73
     0
 40
0.0
  0
LTYPE
  5
F
100
AcDbSymbolTableRecord
100
AcDbLinetypeTableRecord
  2
BYLAYER
 70
     0
  3

 72
    65
 73
     0
 40
0.0
  0
LTYPE
  5
5
100
AcDbSymbolTableRecord
100
AcDbLinetypeTableRecord
  2
CONTINUOUS
 70
     0
  3
Solid line
 72
    65
 73
     0
 40
0.0
  0
ENDTAB
  0
TABLE
  2
LAYER
  5
A
100
AcDbSymbolTable
 70
     7
  0
LAYER
  5
4
100
AcDbSymbolTableRecord
100
AcDbLayerTableRecord
  2
0
 70
     0
 62
     7
  6
CONTINUOUS
  0
LAYER
  5
4D
100
AcDbSymbolTableRecord
100
AcDbLayerTableRecord
  2
ANCON-TIE
 70
     0
 62
     1
  6
CONTINUOUS
  0
LAYER
  5
1F
100
AcDbSymbolTableRecord
100
AcDbLayerTableRecord
  2
ANCON-TEXT
 70
     0
 62
     6
  6
CONTINUOUS
  0
LAYER
  5
25
100
AcDbSymbolTableRecord
100
AcDbLayerTableRecord
  2
ANCON-MASONRY
 70
     0
 62
     1
  6
CONTINUOUS
  0
LAYER
  5
2F
100
AcDbSymbolTableRecord
100
AcDbLayerTableRecord
  2
ANCON-WINDPOST
 70
     0
 62
     3
  6
CONTINUOUS
  0
LAYER
  5
2A
100
AcDbSymbolTableRecord
100
AcDbLayerTableRecord
  2
ANCON-BOLT
 70
     0
 62
     1
  6
CONTINUOUS
  0
LAYER
  5
4B
100
AcDbSymbolTableRecord
100
AcDbLayerTableRecord
  2
DANGLE
 70
     0
 62
     4
  6
CONTINUOUS
  0
ENDTAB
  0
TABLE
  2
STYLE
  5
B
100
AcDbSymbolTable
 70
     2
  0
STYLE
  5
C
100
AcDbSymbolTableRecord
100
AcDbTextStyleTableRecord
  2
STANDARD
 70
     0
 40
0.0
 41
1.0
 50
0.0
 71
     0
 42
3.0
  3
txt.shx
  4

  0
STYLE
  5
1B
100
AcDbSymbolTableRecord
100
AcDbTextStyleTableRecord
  2
ROMANS
 70
     0
 40
9.0
 41
1.0
 50
0.0
 71
     0
 42
9.0
  3
romans
  4

  0
ENDTAB
  0
TABLE
  2
VIEW
  5
10
100
AcDbSymbolTable
 70
     0
  0
ENDTAB
  0
TABLE
  2
UCS
  5
11
100
AcDbSymbolTable
 70
     0
  0
ENDTAB
  0
TABLE
  2
APPID
  5
14
100
AcDbSymbolTable
 70
     1
  0
APPID
  5
15
100
AcDbSymbolTableRecord
100
AcDbRegAppTableRecord
  2
ACAD
 70
     0
  0
ENDTAB
  0
TABLE
  2
DIMSTYLE
  5
16
100
AcDbSymbolTable
 70
     1
  0
DIMSTYLE
105
1D
100
AcDbSymbolTableRecord
100
AcDbDimStyleTableRecord
  2
1-5
 70
     0
  3

  4

  5

  6

  7

 40
5.0
 41
0.0
 42
4.5
 43
0.0
 44
1.5
 45
1.0
 46
1.25
 47
0.0
 48
0.0
140
1.8
141
0.0
142
1.0
143
0.04
144
1.0
145
0.0
146
1.25
147
0.1
 71
     0
 72
     0
 73
     0
 74
     0
 75
     0
 76
     0
 77
     1
 78
    12
170
     0
171
     2
172
     0
173
     0
174
     0
175
     0
176
     0
177
     0
178
     0
270
     2
271
     2
272
     2
273
     2
274
     2
340
1B
275
     0
280
     0
281
     0
282
     0
283
     1
284
    12
285
    12
286
    12
287
     5
288
     0
  0
ENDTAB
  0
TABLE
  2
BLOCK_RECORD
  5
1
100
AcDbSymbolTable
 70
     0
  0
BLOCK_RECORD
  5
2
100
AcDbSymbolTableRecord
100
AcDbBlockTableRecord
  2
*MODEL_SPACE
  0
BLOCK_RECORD
  5
7
100
AcDbSymbolTableRecord
100
AcDbBlockTableRecord
  2
*PAPER_SPACE
  0
ENDTAB
  0
ENDSEC
  0
SECTION
  2
BLOCKS
  0
BLOCK
  5
3
100
AcDbEntity
  8
0
100
AcDbBlockBegin
  2
*MODEL_SPACE
 70
     0
 10
0.0
 20
0.0
 30
0.0
  3
*MODEL_SPACE
  1

  0
ENDBLK
  5
6
100
AcDbEntity
  8
0
100
AcDbBlockEnd
  0
BLOCK
  5
8
100
AcDbEntity
 67
     1
  8
0
100
AcDbBlockBegin
  2
*PAPER_SPACE
 70
     0
 10
0.0
 20
0.0
 30
0.0
  3
*PAPER_SPACE
  1

  0
ENDBLK
  5
9
100
AcDbEntity
 67
     1
  8
0
100
AcDbBlockEnd
  0
ENDSEC
  0
SECTION
  2
ENTITIES
  0
TEXT
  5
1E
100
AcDbEntity
  8
ANCON-TEXT
100
AcDbText
 10
291.082157
 20
19.775305
 30
0.0
 40
9.0
  1
long post and a wind load (UDL) of 2.9 kilonewtons.
  7
ROMANS
100
AcDbText
  0
TEXT
  5
20
100
AcDbEntity
  8
ANCON-TEXT
100
AcDbText
 10
291.082157
 20
34.346734
 30
0.0
 40
9.0
  1
Ancon Building Products will design a system to a 2.5 metre
  7
ROMANS
100
AcDbText
  0
TEXT
  5
21
100
AcDbEntity
  8
ANCON-TEXT
100
AcDbText
 10
291.082157
 20
48.918162
 30
0.0
 40
9.0
  1
by the height/wind load (UDL) ie. WP1/2.5/2.9
  7
ROMANS
100
AcDbText
  0
TEXT
  5
22
100
AcDbEntity
  8
ANCON-TEXT
100
AcDbText
 10
291.082157
 20
63.489591
 30
0.0
 40
9.0
  1
Ancon WP1 can be specified
  7
ROMANS
100
AcDbText
  0
TEXT
  5
23
100
AcDbEntity
  8
ANCON-TEXT
100
AcDbText
 10
291.082157
 20
109.030896
 30
0.0
 40
9.0
  1
Ancon windpost type WP1
  7
ROMANS
100
AcDbText
  0
LINE
  5
24
100
AcDbEntity
  8
ANCON-MASONRY
100
AcDbLine
 10
202.5
 20
187.5
 30
0.0
 11
202.5
 21
-27.5
 31
0.0
  0
LINE
  5
26
100
AcDbEntity
  8
ANCON-MASONRY
100
AcDbLine
 10
-140.0
 20
262.5
 30
0.0
 11
-140.0
 21
-102.5
 31
0.0
  0
LINE
  5
27
100
AcDbEntity
  8
ANCON-MASONRY
100
AcDbLine
 10
100.0
 20
187.5
 30
0.0
 11
100.0
 21
90.0
 31
0.0
  0
LINE
  5
28
100
AcDbEntity
  8
ANCON-MASONRY
100
AcDbLine
 10
0.0
 20
262.5
 30
0.0
 11
0.0
 21
90.0
 31
0.0
  0
LINE
  5
29
100
AcDbEntity
  8
ANCON-BOLT
100
AcDbLine
 10
20.155346
 20
6.161388
 30
0.0
 11
38.911127
 21
6.161388
 31
0.0
  0
LINE
  5
2B
100
AcDbEntity
  8
ANCON-BOLT
100
AcDbLine
 10
20.155346
 20
-5.835812
 30
0.0
 11
38.911127
 21
-5.835812
 31
0.0
  0
LINE
  5
2C
100
AcDbEntity
  8
ANCON-BOLT
100
AcDbLine
 10
20.155346
 20
-4.746939
 30
0.0
 11
40.0
 21
-4.746939
 31
0.0
  0
LINE
  5
2D
100
AcDbEntity
  8
ANCON-BOLT
100
AcDbLine
 10
20.155346
 20
5.072515
 30
0.0
 11
40.0
 21
5.072515
 31
0.0
  0
LINE
  5
2E
100
AcDbEntity
  8
ANCON-WINDPOST
100
AcDbLine
 10
14.0
 20
50.0
 30
0.0
 11
70.0
 21
50.0
 31
0.0
  0
LINE
  5
30
100
AcDbEntity
  8
ANCON-WINDPOST
100
AcDbLine
 10
14.0
 20
44.0
 30
0.0
 11
70.0
 21
44.0
 31
0.0
  0
LINE
  5
31
100
AcDbEntity
  8
ANCON-WINDPOST
100
AcDbLine
 10
18.0
 20
54.0
 30
0.0
 11
62.0
 21
54.0
 31
0.0
  0
LINE
  5
32
100
AcDbEntity
  8
ANCON-WINDPOST
100
AcDbLine
 10
18.0
 20
50.0
 30
0.0
 11
62.0
 21
50.0
 31
0.0
  0
LINE
  5
33
100
AcDbEntity
  8
ANCON-WINDPOST
100
AcDbLine
 10
6.0
 20
36.0
 30
0.0
 11
6.0
 21
-25.0
 31
0.0
  0
LINE
  5
34
100
AcDbEntity
  8
ANCON-WINDPOST
100
AcDbLine
 10
0.0
 20
36.0
 30
0.0
 11
0.0
 21
-25.0
 31
0.0
  0
LINE
  5
35
100
AcDbEntity
  8
ANCON-MASONRY
100
AcDbLine
 10
0.0
 20
70.0
 30
0.0
 11
0.0
 21
-102.5
 31
0.0
  0
LINE
  5
36
100
AcDbEntity
  8
ANCON-WINDPOST
100
AcDbLine
 10
0.0
 20
-25.0
 30
0.0
 11
6.0
 21
-25.0
 31
0.0
  0
ARC
  5
37
100
AcDbEntity
  8
ANCON-WINDPOST
100
AcDbCircle
 10
14.0
 20
36.0
 30
0.0
 40
14.0
100
AcDbArc
 50
90.0
 51
180.0
  0
LINE
  5
38
100
AcDbEntity
  8
ANCON-BOLT
100
AcDbLine
 10
6.0
 20
16.333092
 30
0.0
 11
6.0
 21
-16.333092
 31
0.0
  0
LINE
  5
39
100
AcDbEntity
  8
ANCON-BOLT
100
AcDbLine
 10
9.266618
 20
16.333092
 30
0.0
 11
9.266618
 21
-16.333092
 31
0.0
  0
LINE
  5
3A
100
AcDbEntity
  8
ANCON-BOLT
100
AcDbLine
 10
20.155346
 20
0.0
 30
0.0
 11
20.155346
 21
-6.533237
 31
0.0
  0
ARC
  5
3B
100
AcDbEntity
  8
ANCON-BOLT
100
AcDbCircle
 10
8.177746
 20
0.0
 30
0.0
 40
11.977601
100
AcDbArc
 50
329.727359
 51
30.272641
  0
ARC
  5
3C
100
AcDbEntity
  8
ANCON-BOLT
100
AcDbCircle
 10
21.244219
 20
0.0
 30
0.0
 40
11.977601
100
AcDbArc
 50
149.727359
 51
210.272641
  0
LINE
  5
3D
100
AcDbEntity
  8
ANCON-BOLT
100
AcDbLine
 10
20.155346
 20
9.007846
 30
0.0
 11
20.155346
 21
-9.007846
 31
0.0
  0
LINE
  5
3E
100
AcDbEntity
  8
ANCON-BOLT
100
AcDbLine
 10
9.266618
 20
9.007846
 30
0.0
 11
9.266618
 21
-9.007846
 31
0.0
  0
LINE
  5
3F
100
AcDbEntity
  8
ANCON-BOLT
100
AcDbLine
 10
10.899927
 20
-11.977601
 30
0.0
 11
18.522037
 21
-11.977601
 31
0.0
  0
LINE
  5
40
100
AcDbEntity
  8
ANCON-BOLT
100
AcDbLine
 10
10.899927
 20
-6.038092
 30
0.0
 11
18.522037
 21
-6.038092
 31
0.0
  0
LINE
  5
41
100
AcDbEntity
  8
ANCON-BOLT
100
AcDbLine
 10
6.0
 20
-16.333092
 30
0.0
 11
9.266618
 21
-16.333092
 31
0.0
  0
ARC
  5
42
100
AcDbEntity
  8
ANCON-BOLT
100
AcDbCircle
 10
12.783142
 20
-9.007846
 30
0.0
 40
3.516524
100
AcDbArc
 50
122.380065
 51
237.619935
  0
ARC
  5
43
100
AcDbEntity
  8
ANCON-BOLT
100
AcDbCircle
 10
16.638823
 20
-9.007846
 30
0.0
 40
3.516524
100
AcDbArc
 50
302.380065
 51
57.619935
  0
LINE
  5
44
100
AcDbEntity
  8
ANCON-BOLT
100
AcDbLine
 10
10.899927
 20
6.038092
 30
0.0
 11
18.522037
 21
6.038092
 31
0.0
  0
LINE
  5
45
100
AcDbEntity
  8
ANCON-BOLT
100
AcDbLine
 10
10.899927
 20
11.977601
 30
0.0
 11
18.522037
 21
11.977601
 31
0.0
  0
ARC
  5
46
100
AcDbEntity
  8
ANCON-BOLT
100
AcDbCircle
 10
12.783142
 20
9.007846
 30
0.0
 40
3.516524
100
AcDbArc
 50
122.380065
 51
237.619935
  0
ARC
  5
47
100
AcDbEntity
  8
ANCON-BOLT
100
AcDbCircle
 10
16.638823
 20
9.007846
 30
0.0
 40
3.516524
100
AcDbArc
 50
302.380065
 51
57.619935
  0
LINE
  5
48
100
AcDbEntity
  8
ANCON-BOLT
100
AcDbLine
 10
9.266618
 20
16.333092
 30
0.0
 11
6.0
 21
16.333092
 31
0.0
  0
ARC
  5
49
100
AcDbEntity
  8
ANCON-WINDPOST
100
AcDbCircle
 10
14.0
 20
36.0
 30
0.0
 40
8.0
100
AcDbArc
 50
90.0
 51
180.0
  0
CIRCLE
  5
4A
100
AcDbEntity
  8
DANGLE
 62
     1
100
AcDbCircle
 10
-44.5
 20
80.0
 30
0.0
 40
6.0
  0
LINE
  5
4C
100
AcDbEntity
  8
ANCON-TIE
100
AcDbLine
 10
-50.5
 20
90.0
 30
0.0
 11
9.75
 21
90.0
 31
0.0
  0
LINE
  5
4E
100
AcDbEntity
  8
ANCON-TIE
100
AcDbLine
 10
-50.5
 20
70.0
 30
0.0
 11
9.75
 21
70.0
 31
0.0
  0
ARC
  5
4F
100
AcDbEntity
  8
DANGLE
 62
     1
100
AcDbCircle
 10
-71.333333
 20
80.0
 30
0.0
 40
18.166667
100
AcDbArc
 50
146.601512
 51
213.398488
  0
CIRCLE
  5
50
100
AcDbEntity
  8
DANGLE
 62
     1
100
AcDbCircle
 10
-61.5
 20
80.0
 30
0.0
 40
6.0
  0
CIRCLE
  5
51
100
AcDbEntity
  8
DANGLE
 62
     1
100
AcDbCircle
 10
-78.5
 20
80.0
 30
0.0
 40
6.0
  0
LINE
  5
52
100
AcDbEntity
  8
DANGLE
 62
     1
100
AcDbLine
 10
-86.5
 20
70.0
 30
0.0
 11
-72.5
 21
70.0
 31
0.0
  0
LINE
  5
53
100
AcDbEntity
  8
DANGLE
 62
     1
100
AcDbLine
 10
-67.5
 20
70.0
 30
0.0
 11
-55.5
 21
70.0
 31
0.0
  0
ARC
  5
54
100
AcDbEntity
  8
DANGLE
 62
     1
100
AcDbCircle
 10
-70.0
 20
70.0
 30
0.0
 40
2.5
100
AcDbArc
 50
0.0
 51
180.0
  0
ARC
  5
55
100
AcDbEntity
  8
DANGLE
 62
     1
100
AcDbCircle
 10
-53.0
 20
70.0
 30
0.0
 40
2.5
100
AcDbArc
 50
0.0
 51
180.0
  0
LINE
  5
56
100
AcDbEntity
  8
DANGLE
 62
     1
100
AcDbLine
 10
-72.5
 20
90.0
 30
0.0
 11
-86.5
 21
90.0
 31
0.0
  0
LINE
  5
57
100
AcDbEntity
  8
DANGLE
 62
     1
100
AcDbLine
 10
-55.5
 20
90.0
 30
0.0
 11
-67.5
 21
90.0
 31
0.0
  0
ARC
  5
58
100
AcDbEntity
  8
DANGLE
 62
     1
100
AcDbCircle
 10
-70.0
 20
90.0
 30
0.0
 40
2.5
100
AcDbArc
 50
180.0
 51
0.0
  0
ARC
  5
59
100
AcDbEntity
  8
DANGLE
 62
     1
100
AcDbCircle
 10
-53.0
 20
90.0
 30
0.0
 40
2.5
100
AcDbArc
 50
180.0
 51
0.0
  0
LINE
  5
5A
100
AcDbEntity
  8
ANCON-TIE
100
AcDbLine
 10
20.25
 20
90.0
 30
0.0
 11
20.25
 21
70.0
 31
0.0
  0
LINE
  5
5B
100
AcDbEntity
  8
ANCON-TIE
100
AcDbLine
 10
-5.004409
 20
90.0
 30
0.0
 11
-5.004409
 21
70.0
 31
0.0
  0
LINE
  5
5C
100
AcDbEntity
  8
ANCON-TIE
100
AcDbLine
 10
-6.004409
 20
88.0
 30
0.0
 11
-6.004409
 21
72.0
 31
0.0
  0
LINE
  5
5D
100
AcDbEntity
  8
ANCON-TIE
100
AcDbLine
 10
-4.004409
 20
88.0
 30
0.0
 11
-4.004409
 21
72.0
 31
0.0
  0
LINE
  5
5E
100
AcDbEntity
  8
ANCON-TIE
100
AcDbLine
 10
-13.504409
 20
88.0
 30
0.0
 11
-13.504409
 21
72.0
 31
0.0
  0
LINE
  5
5F
100
AcDbEntity
  8
ANCON-TIE
100
AcDbLine
 10
-11.504409
 20
88.0
 30
0.0
 11
-11.504409
 21
72.0
 31
0.0
  0
LINE
  5
60
100
AcDbEntity
  8
ANCON-TIE
100
AcDbLine
 10
-12.504409
 20
90.0
 30
0.0
 11
-12.504409
 21
70.0
 31
0.0
  0
LINE
  5
61
100
AcDbEntity
  8
ANCON-TIE
100
AcDbLine
 10
1.495591
 20
88.0
 30
0.0
 11
1.495591
 21
72.0
 31
0.0
  0
LINE
  5
62
100
AcDbEntity
  8
ANCON-TIE
100
AcDbLine
 10
3.495591
 20
88.0
 30
0.0
 11
3.495591
 21
72.0
 31
0.0
  0
LINE
  5
63
100
AcDbEntity
  8
ANCON-TIE
100
AcDbLine
 10
2.495591
 20
90.0
 30
0.0
 11
2.495591
 21
70.0
 31
0.0
  0
LINE
  5
64
100
AcDbEntity
  8
ANCON-WINDPOST
100
AcDbLine
 10
14.0
 20
102.0
 30
0.0
 11
14.0
 21
58.0
 31
0.0
  0
LINE
  5
65
100
AcDbEntity
  8
ANCON-WINDPOST
100
AcDbLine
 10
10.0
 20
102.0
 30
0.0
 11
10.0
 21
58.0
 31
0.0
  0
ARC
  5
66
100
AcDbEntity
  8
ANCON-WINDPOST
100
AcDbCircle
 10
18.0
 20
58.0
 30
0.0
 40
8.0
100
AcDbArc
 50
180.0
 51
270.0
  0
ARC
  5
67
100
AcDbEntity
  8
ANCON-WINDPOST
100
AcDbCircle
 10
18.0
 20
58.0
 30
0.0
 40
4.0
100
AcDbArc
 50
180.0
 51
270.0
  0
LINE
  5
68
100
AcDbEntity
  8
ANCON-TIE
100
AcDbLine
 10
9.75
 20
75.0
 30
0.0
 11
9.75
 21
70.0
 31
0.0
  0
LINE
  5
69
100
AcDbEntity
  8
ANCON-TIE
100
AcDbLine
 10
9.75
 20
75.0
 30
0.0
 11
10.0
 21
75.0
 31
0.0
  0
LINE
  5
6A
100
AcDbEntity
  8
ANCON-TIE
100
AcDbLine
 10
14.25
 20
75.0
 30
0.0
 11
14.25
 21
70.0
 31
0.0
  0
LINE
  5
6B
100
AcDbEntity
  8
ANCON-TIE
100
AcDbLine
 10
14.25
 20
70.0
 30
0.0
 11
20.25
 21
70.0
 31
0.0
  0
LINE
  5
6C
100
AcDbEntity
  8
ANCON-TIE
100
AcDbLine
 10
14.0
 20
75.0
 30
0.0
 11
14.25
 21
75.0
 31
0.0
  0
LINE
  5
6D
100
AcDbEntity
  8
ANCON-TIE
100
AcDbLine
 10
9.75
 20
90.0
 30
0.0
 11
9.75
 21
85.0
 31
0.0
  0
LINE
  5
6E
100
AcDbEntity
  8
ANCON-TIE
100
AcDbLine
 10
9.75
 20
85.0
 30
0.0
 11
10.0
 21
85.0
 31
0.0
  0
LINE
  5
6F
100
AcDbEntity
  8
ANCON-TIE
100
AcDbLine
 10
14.25
 20
90.0
 30
0.0
 11
14.25
 21
85.0
 31
0.0
  0
LINE
  5
70
100
AcDbEntity
  8
ANCON-TIE
100
AcDbLine
 10
14.0
 20
85.0
 30
0.0
 11
14.25
 21
85.0
 31
0.0
  0
LINE
  5
71
100
AcDbEntity
  8
ANCON-TIE
100
AcDbLine
 10
14.25
 20
90.0
 30
0.0
 11
20.25
 21
90.0
 31
0.0
  0
ARC
  5
72
100
AcDbEntity
  8
ANCON-WINDPOST
100
AcDbCircle
 10
18.0
 20
102.0
 30
0.0
 40
8.0
100
AcDbArc
 50
90.0
 51
180.0
  0
ARC
  5
73
100
AcDbEntity
  8
ANCON-WINDPOST
100
AcDbCircle
 10
18.0
 20
102.0
 30
0.0
 40
4.0
100
AcDbArc
 50
90.0
 51
180.0
  0
LINE
  5
74
100
AcDbEntity
  8
ANCON-WINDPOST
100
AcDbLine
 10
30.0
 20
106.0
 30
0.0
 11
18.0
 21
106.0
 31
0.0
  0
LINE
  5
75
100
AcDbEntity
  8
ANCON-WINDPOST
100
AcDbLine
 10
30.0
 20
110.0
 30
0.0
 11
18.0
 21
110.0
 31
0.0
  0
LINE
  5
76
100
AcDbEntity
  8
ANCON-WINDPOST
100
AcDbLine
 10
30.0
 20
110.0
 30
0.0
 11
30.0
 21
106.0
 31
0.0
  0
LINE
  5
77
100
AcDbEntity
  8
ANCON-MASONRY
100
AcDbLine
 10
100.0
 20
70.0
 30
0.0
 11
100.0
 21
-27.5
 31
0.0
  0
LINE
  5
78
100
AcDbEntity
  8
ANCON-MASONRY
100
AcDbLine
 10
202.5
 20
-37.5
 30
0.0
 11
100.0
 21
-37.5
 31
0.0
  0
LINE
  5
79
100
AcDbEntity
  8
ANCON-MASONRY
100
AcDbLine
 10
202.5
 20
-27.5
 30
0.0
 11
100.0
 21
-27.5
 31
0.0
  0
LINE
  5
7A
100
AcDbEntity
  8
ANCON-MASONRY
100
AcDbLine
 10
100.0
 20
-37.5
 30
0.0
 11
100.0
 21
-102.5
 31
0.0
  0
LINE
  5
7B
100
AcDbEntity
  8
ANCON-MASONRY
100
AcDbLine
 10
202.5
 20
-37.5
 30
0.0
 11
202.5
 21
-102.5
 31
0.0
  0
LINE
  5
7C
100
AcDbEntity
  8
ANCON-WINDPOST
100
AcDbLine
 10
70.0
 20
50.0
 30
0.0
 11
70.0
 21
44.0
 31
0.0
  0
LINE
  5
7D
100
AcDbEntity
  8
ANCON-BOLT
100
AcDbLine
 10
40.0
 20
5.072515
 30
0.0
 11
40.0
 21
-4.746939
 31
0.0
  0
LINE
  5
7E
100
AcDbEntity
  8
ANCON-BOLT
100
AcDbLine
 10
38.911127
 20
6.161388
 30
0.0
 11
38.911127
 21
-5.835812
 31
0.0
  0
LINE
  5
7F
100
AcDbEntity
  8
ANCON-BOLT
100
AcDbLine
 10
38.911127
 20
-5.835812
 30
0.0
 11
40.0
 21
-4.746939
 31
0.0
  0
LINE
  5
80
100
AcDbEntity
  8
ANCON-BOLT
100
AcDbLine
 10
38.911127
 20
6.161388
 30
0.0
 11
40.0
 21
5.072515
 31
0.0
  0
LINE
  5
81
100
AcDbEntity
  8
ANCON-TIE
100
AcDbLine
 10
130.5
 20
70.0
 30
0.0
 11
70.25
 21
70.0
 31
0.0
  0
LINE
  5
82
100
AcDbEntity
  8
ANCON-TIE
100
AcDbLine
 10
130.5
 20
90.0
 30
0.0
 11
70.25
 21
90.0
 31
0.0
  0
LINE
  5
83
100
AcDbEntity
  8
ANCON-TIE
100
AcDbLine
 10
77.504409
 20
90.0
 30
0.0
 11
77.504409
 21
70.0
 31
0.0
  0
LINE
  5
84
100
AcDbEntity
  8
ANCON-TIE
100
AcDbLine
 10
76.504409
 20
88.0
 30
0.0
 11
76.504409
 21
72.0
 31
0.0
  0
LINE
  5
85
100
AcDbEntity
  8
ANCON-TIE
100
AcDbLine
 10
78.504409
 20
88.0
 30
0.0
 11
78.504409
 21
72.0
 31
0.0
  0
LINE
  5
86
100
AcDbEntity
  8
ANCON-TIE
100
AcDbLine
 10
92.504409
 20
90.0
 30
0.0
 11
92.504409
 21
70.0
 31
0.0
  0
LINE
  5
87
100
AcDbEntity
  8
ANCON-TIE
100
AcDbLine
 10
91.504409
 20
88.0
 30
0.0
 11
91.504409
 21
72.0
 31
0.0
  0
LINE
  5
88
100
AcDbEntity
  8
ANCON-TIE
100
AcDbLine
 10
93.504409
 20
88.0
 30
0.0
 11
93.504409
 21
72.0
 31
0.0
  0
LINE
  5
89
100
AcDbEntity
  8
ANCON-TIE
100
AcDbLine
 10
84.004409
 20
88.0
 30
0.0
 11
84.004409
 21
72.0
 31
0.0
  0
LINE
  5
8A
100
AcDbEntity
  8
ANCON-TIE
100
AcDbLine
 10
86.004409
 20
88.0
 30
0.0
 11
86.004409
 21
72.0
 31
0.0
  0
LINE
  5
8B
100
AcDbEntity
  8
ANCON-TIE
100
AcDbLine
 10
85.004409
 20
90.0
 30
0.0
 11
85.004409
 21
70.0
 31
0.0
  0
LINE
  5
8C
100
AcDbEntity
  8
ANCON-TIE
100
AcDbLine
 10
59.75
 20
90.0
 30
0.0
 11
59.75
 21
70.0
 31
0.0
  0
LINE
  5
8D
100
AcDbEntity
  8
ANCON-WINDPOST
100
AcDbLine
 10
66.0
 20
58.0
 30
0.0
 11
66.0
 21
102.0
 31
0.0
  0
LINE
  5
8E
100
AcDbEntity
  8
ANCON-WINDPOST
100
AcDbLine
 10
70.0
 20
58.0
 30
0.0
 11
70.0
 21
102.0
 31
0.0
  0
ARC
  5
8F
100
AcDbEntity
  8
ANCON-WINDPOST
100
AcDbCircle
 10
62.0
 20
58.0
 30
0.0
 40
8.0
100
AcDbArc
 50
270.0
 51
0.0
  0
ARC
  5
90
100
AcDbEntity
  8
ANCON-WINDPOST
100
AcDbCircle
 10
62.0
 20
58.0
 30
0.0
 40
4.0
100
AcDbArc
 50
270.0
 51
0.0
  0
LINE
  5
91
100
AcDbEntity
  8
ANCON-TIE
100
AcDbLine
 10
65.75
 20
75.0
 30
0.0
 11
65.75
 21
70.0
 31
0.0
  0
LINE
  5
92
100
AcDbEntity
  8
ANCON-TIE
100
AcDbLine
 10
65.75
 20
70.0
 30
0.0
 11
59.75
 21
70.0
 31
0.0
  0
LINE
  5
93
100
AcDbEntity
  8
ANCON-TIE
100
AcDbLine
 10
66.0
 20
75.0
 30
0.0
 11
65.75
 21
75.0
 31
0.0
  0
LINE
  5
94
100
AcDbEntity
  8
ANCON-TIE
100
AcDbLine
 10
70.25
 20
75.0
 30
0.0
 11
70.25
 21
70.0
 31
0.0
  0
LINE
  5
95
100
AcDbEntity
  8
ANCON-TIE
100
AcDbLine
 10
70.25
 20
75.0
 30
0.0
 11
70.0
 21
75.0
 31
0.0
  0
ARC
  5
96
100
AcDbEntity
  8
ANCON-WINDPOST
100
AcDbCircle
 10
62.0
 20
102.0
 30
0.0
 40
8.0
100
AcDbArc
 50
0.0
 51
90.0
  0
LINE
  5
97
100
AcDbEntity
  8
ANCON-TIE
100
AcDbLine
 10
65.75
 20
90.0
 30
0.0
 11
65.75
 21
85.0
 31
0.0
  0
LINE
  5
98
100
AcDbEntity
  8
ANCON-TIE
100
AcDbLine
 10
66.0
 20
85.0
 30
0.0
 11
65.75
 21
85.0
 31
0.0
  0
LINE
  5
99
100
AcDbEntity
  8
ANCON-TIE
100
AcDbLine
 10
65.75
 20
90.0
 30
0.0
 11
59.75
 21
90.0
 31
0.0
  0
LINE
  5
9A
100
AcDbEntity
  8
ANCON-WINDPOST
100
AcDbLine
 10
62.0
 20
106.0
 30
0.0
 11
50.0
 21
106.0
 31
0.0
  0
LINE
  5
9B
100
AcDbEntity
  8
ANCON-WINDPOST
100
AcDbLine
 10
62.0
 20
110.0
 30
0.0
 11
50.0
 21
110.0
 31
0.0
  0
LINE
  5
9C
100
AcDbEntity
  8
ANCON-WINDPOST
100
AcDbLine
 10
50.0
 20
110.0
 30
0.0
 11
50.0
 21
106.0
 31
0.0
  0
ARC
  5
9D
100
AcDbEntity
  8
ANCON-WINDPOST
100
AcDbCircle
 10
62.0
 20
102.0
 30
0.0
 40
4.0
100
AcDbArc
 50
0.0
 51
90.0
  0
LINE
  5
9E
100
AcDbEntity
  8
ANCON-TIE
100
AcDbLine
 10
70.25
 20
90.0
 30
0.0
 11
70.25
 21
85.0
 31
0.0
  0
LINE
  5
9F
100
AcDbEntity
  8
ANCON-TIE
100
AcDbLine
 10
70.25
 20
85.0
 30
0.0
 11
70.0
 21
85.0
 31
0.0
  0
CIRCLE
  5
A0
100
AcDbEntity
  8
DANGLE
 62
     1
100
AcDbCircle
 10
158.5
 20
80.0
 30
0.0
 40
6.0
  0
CIRCLE
  5
A1
100
AcDbEntity
  8
DANGLE
 62
     1
100
AcDbCircle
 10
141.5
 20
80.0
 30
0.0
 40
6.0
  0
CIRCLE
  5
A2
100
AcDbEntity
  8
DANGLE
 62
     1
100
AcDbCircle
 10
124.5
 20
80.0
 30
0.0
 40
6.0
  0
ARC
  5
A3
100
AcDbEntity
  8
DANGLE
 62
     1
100
AcDbCircle
 10
151.333333
 20
80.0
 30
0.0
 40
18.166667
100
AcDbArc
 50
326.601512
 51
33.398488
  0
LINE
  5
A4
100
AcDbEntity
  8
DANGLE
 62
     1
100
AcDbLine
 10
147.5
 20
70.0
 30
0.0
 11
135.5
 21
70.0
 31
0.0
  0
ARC
  5
A5
100
AcDbEntity
  8
DANGLE
 62
     1
100
AcDbCircle
 10
133.0
 20
70.0
 30
0.0
 40
2.5
100
AcDbArc
 50
0.0
 51
180.0
  0
LINE
  5
A6
100
AcDbEntity
  8
DANGLE
 62
     1
100
AcDbLine
 10
166.5
 20
70.0
 30
0.0
 11
152.5
 21
70.0
 31
0.0
  0
ARC
  5
A7
100
AcDbEntity
  8
DANGLE
 62
     1
100
AcDbCircle
 10
150.0
 20
70.0
 30
0.0
 40
2.5
100
AcDbArc
 50
0.0
 51
180.0
  0
LINE
  5
A8
100
AcDbEntity
  8
DANGLE
 62
     1
100
AcDbLine
 10
135.5
 20
90.0
 30
0.0
 11
147.5
 21
90.0
 31
0.0
  0
ARC
  5
A9
100
AcDbEntity
  8
DANGLE
 62
     1
100
AcDbCircle
 10
133.0
 20
90.0
 30
0.0
 40
2.5
100
AcDbArc
 50
180.0
 51
0.0
  0
LINE
  5
AA
100
AcDbEntity
  8
DANGLE
 62
     1
100
AcDbLine
 10
152.5
 20
90.0
 30
0.0
 11
166.5
 21
90.0
 31
0.0
  0
ARC
  5
AB
100
AcDbEntity
  8
DANGLE
 62
     1
100
AcDbCircle
 10
150.0
 20
90.0
 30
0.0
 40
2.5
100
AcDbArc
 50
180.0
 51
0.0
  0
LINE
  5
AC
100
AcDbEntity
  8
ANCON-MASONRY
100
AcDbLine
 10
202.5
 20
262.5
 30
0.0
 11
202.5
 21
197.5
 31
0.0
  0
LINE
  5
AD
100
AcDbEntity
  8
ANCON-MASONRY
100
AcDbLine
 10
100.0
 20
262.5
 30
0.0
 11
100.0
 21
197.5
 31
0.0
  0
LINE
  5
AE
100
AcDbEntity
  8
ANCON-MASONRY
100
AcDbLine
 10
202.5
 20
197.5
 30
0.0
 11
100.0
 21
197.5
 31
0.0
  0
LINE
  5
AF
100
AcDbEntity
  8
ANCON-MASONRY
100
AcDbLine
 10
202.5
 20
187.5
 30
0.0
 11
100.0
 21
187.5
 31
0.0
  0
ENDSEC
  0
SECTION
  2
OBJECTS
  0
DICTIONARY
  5
1A
100
AcDbDictionary
  3
ACAD_GROUP
350
18
  3
ACAD_MLINESTYLE
350
19
  0
DICTIONARY
  5
18
102
{ACAD_REACTORS
330
1A
102
}
100
AcDbDictionary
  0
DICTIONARY
  5
19
102
{ACAD_REACTORS
330
1A
102
}
100
AcDbDictionary
  3
STANDARD
350
1C
  0
MLINESTYLE
  5
1C
102
{ACAD_REACTORS
330
19
102
}
100
AcDbMlineStyle
  2
STANDARD
 70
     0
  3

 62
   256
 51
90.0
 52
90.0
 71
     2
 49
0.5
 62
   256
  6
BYLAYER
 49
-0.5
 62
   256
  6
BYLAYER
  0
ENDSEC
  0
EOF
