  0
SECTION
  2
HEADER
  9
$ACADVER
  1
AC1015
  9
$ACADMAINTVER
 70
    10
  9
$DWGCODEPAGE
  3
ANSI_1252
  9
$INSBASE
 10
0.0
 20
-90.0
 30
0.0
  9
$EXTMIN
 10
-191.2552761888535
 20
-390.0209639766499
 30
-0.0015258207003583
  9
$EXTMAX
 10
730.3959984665816
 20
125.0508284257384
 30
0.0000000349246037
  9
$LIMMIN
 10
0.0
 20
0.0
  9
$LIMMAX
 10
420.0
 20
297.0
  9
$ORTHOMODE
 70
     1
  9
$REGENMODE
 70
     1
  9
$FILLMODE
 70
     1
  9
$QTEXTMODE
 70
     0
  9
$MIRRTEXT
 70
     1
  9
$LTSCALE
 40
1.0
  9
$ATTMODE
 70
     1
  9
$TEXTSIZE
 40
9.0
  9
$TRACEWID
 40
10.0
  9
$TEXTSTYLE
  7
ROMANS
  9
$CLAYER
  8
0
  9
$CELTYPE
  6
BYLAYER
  9
$CECOLOR
 62
   256
  9
$CELTSCALE
 40
1.0
  9
$DISPSILH
 70
     0
  9
$DIMSCALE
 40
5.0
  9
$DIMASZ
 40
0.0
  9
$DIMEXO
 40
4.5
  9
$DIMDLI
 40
0.0
  9
$DIMRND
 40
1.0
  9
$DIMDLE
 40
1.25
  9
$DIMEXE
 40
1.5
  9
$DIMTP
 40
0.0
  9
$DIMTM
 40
0.0
  9
$DIMTXT
 40
1.8
  9
$DIMCEN
 40
0.0
  9
$DIMTSZ
 40
1.0
  9
$DIMTOL
 70
     0
  9
$DIMLIM
 70
     0
  9
$DIMTIH
 70
     0
  9
$DIMTOH
 70
     0
  9
$DIMSE1
 70
     0
  9
$DIMSE2
 70
     0
  9
$DIMTAD
 70
     1
  9
$DIMZIN
 70
    12
  9
$DIMBLK
  1

  9
$DIMASO
 70
     1
  9
$DIMSHO
 70
     0
  9
$DIMPOST
  1

  9
$DIMAPOST
  1

  9
$DIMALT
 70
     0
  9
$DIMALTD
 70
     2
  9
$DIMALTF
 40
0.04
  9
$DIMLFAC
 40
1.0
  9
$DIMTOFL
 70
     0
  9
$DIMTVP
 40
0.0
  9
$DIMTIX
 70
     0
  9
$DIMSOXD
 70
     0
  9
$DIMSAH
 70
     0
  9
$DIMBLK1
  1

  9
$DIMBLK2
  1

  9
$DIMSTYLE
  2
1-5
  9
$DIMCLRD
 70
     0
  9
$DIMCLRE
 70
     0
  9
$DIMCLRT
 70
     0
  9
$DIMTFAC
 40
1.25
  9
$DIMGAP
 40
0.1
  9
$DIMJUST
 70
     0
  9
$DIMSD1
 70
     0
  9
$DIMSD2
 70
     0
  9
$DIMTOLJ
 70
     1
  9
$DIMTZIN
 70
    12
  9
$DIMALTZ
 70
    12
  9
$DIMALTTZ
 70
    12
  9
$DIMUPT
 70
     0
  9
$DIMDEC
 70
     2
  9
$DIMTDEC
 70
     2
  9
$DIMALTU
 70
     2
  9
$DIMALTTD
 70
     2
  9
$DIMTXSTY
  7
ROMANS
  9
$DIMAUNIT
 70
     0
  9
$DIMADEC
 70
     0
  9
$DIMALTRND
 40
0.0
  9
$DIMAZIN
 70
     0
  9
$DIMDSEP
 70
    46
  9
$DIMATFIT
 70
     3
  9
$DIMFRAC
 70
     0
  9
$DIMLDRBLK
  1

  9
$DIMLUNIT
 70
     2
  9
$DIMLWD
 70
    -2
  9
$DIMLWE
 70
    -2
  9
$DIMTMOVE
 70
     2
  9
$LUNITS
 70
     2
  9
$LUPREC
 70
     2
  9
$SKETCHINC
 40
1.0
  9
$FILLETRAD
 40
0.0
  9
$AUNITS
 70
     0
  9
$AUPREC
 70
     4
  9
$MENU
  1
C:\ACADWIN\SUPPORT\ACAD
  9
$ELEVATION
 40
0.0
  9
$PELEVATION
 40
0.0
  9
$THICKNESS
 40
0.0
  9
$LIMCHECK
 70
     0
  9
$CHAMFERA
 40
0.0
  9
$CHAMFERB
 40
0.0
  9
$CHAMFERC
 40
0.0
  9
$CHAMFERD
 40
0.0
  9
$SKPOLY
 70
     0
  9
$TDCREATE
 40
2450429.655338657
  9
$TDUCREATE
 40
2450429.613671990
  9
$TDUPDATE
 40
2452487.873788889
  9
$TDUUPDATE
 40
2452487.832122222
  9
$TDINDWG
 40
0.1814239583
  9
$TDUSRTIMER
 40
0.1814239583
  9
$USRTIMER
 70
     1
  9
$ANGBASE
 50
0.0
  9
$ANGDIR
 70
     0
  9
$PDMODE
 70
     0
  9
$PDSIZE
 40
0.0
  9
$PLINEWID
 40
0.0
  9
$SPLFRAME
 70
     0
  9
$SPLINETYPE
 70
     6
  9
$SPLINESEGS
 70
     8
  9
$HANDSEED
  5
1B3
  9
$SURFTAB1
 70
    18
  9
$SURFTAB2
 70
    18
  9
$SURFTYPE
 70
     6
  9
$SURFU
 70
    18
  9
$SURFV
 70
    18
  9
$UCSBASE
  2

  9
$UCSNAME
  2

  9
$UCSORG
 10
0.0
 20
0.0
 30
0.0
  9
$UCSXDIR
 10
1.0
 20
0.0
 30
0.0
  9
$UCSYDIR
 10
0.0
 20
1.0
 30
0.0
  9
$UCSORTHOREF
  2

  9
$UCSORTHOVIEW
 70
     0
  9
$UCSORGTOP
 10
0.0
 20
0.0
 30
0.0
  9
$UCSORGBOTTOM
 10
0.0
 20
0.0
 30
0.0
  9
$UCSORGLEFT
 10
0.0
 20
0.0
 30
0.0
  9
$UCSORGRIGHT
 10
0.0
 20
0.0
 30
0.0
  9
$UCSORGFRONT
 10
0.0
 20
0.0
 30
0.0
  9
$UCSORGBACK
 10
0.0
 20
0.0
 30
0.0
  9
$PUCSBASE
  2

  9
$PUCSNAME
  2

  9
$PUCSORG
 10
0.0
 20
0.0
 30
0.0
  9
$PUCSXDIR
 10
1.0
 20
0.0
 30
0.0
  9
$PUCSYDIR
 10
0.0
 20
1.0
 30
0.0
  9
$PUCSORTHOREF
  2

  9
$PUCSORTHOVIEW
 70
     0
  9
$PUCSORGTOP
 10
0.0
 20
0.0
 30
0.0
  9
$PUCSORGBOTTOM
 10
0.0
 20
0.0
 30
0.0
  9
$PUCSORGLEFT
 10
0.0
 20
0.0
 30
0.0
  9
$PUCSORGRIGHT
 10
0.0
 20
0.0
 30
0.0
  9
$PUCSORGFRONT
 10
0.0
 20
0.0
 30
0.0
  9
$PUCSORGBACK
 10
0.0
 20
0.0
 30
0.0
  9
$USERI1
 70
     0
  9
$USERI2
 70
     0
  9
$USERI3
 70
     0
  9
$USERI4
 70
     0
  9
$USERI5
 70
     0
  9
$USERR1
 40
0.0
  9
$USERR2
 40
0.0
  9
$USERR3
 40
0.0
  9
$USERR4
 40
0.0
  9
$USERR5
 40
0.0
  9
$WORLDVIEW
 70
     1
  9
$SHADEDGE
 70
     3
  9
$SHADEDIF
 70
    70
  9
$TILEMODE
 70
     1
  9
$MAXACTVP
 70
    16
  9
$PINSBASE
 10
0.0
 20
0.0
 30
0.0
  9
$PLIMCHECK
 70
     0
  9
$PEXTMIN
 10
1.000000000000000E+20
 20
1.000000000000000E+20
 30
1.000000000000000E+20
  9
$PEXTMAX
 10
-1.000000000000000E+20
 20
-1.000000000000000E+20
 30
-1.000000000000000E+20
  9
$PLIMMIN
 10
0.0
 20
0.0
  9
$PLIMMAX
 10
420.0
 20
297.0
  9
$UNITMODE
 70
     0
  9
$VISRETAIN
 70
     0
  9
$PLINEGEN
 70
     0
  9
$PSLTSCALE
 70
     1
  9
$TREEDEPTH
 70
  3020
  9
$CMLSTYLE
  2
STANDARD
  9
$CMLJUST
 70
     0
  9
$CMLSCALE
 40
1.0
  9
$PROXYGRAPHICS
 70
     1
  9
$MEASUREMENT
 70
     0
  9
$CELWEIGHT
370
    -1
  9
$ENDCAPS
280
     0
  9
$JOINSTYLE
280
     0
  9
$LWDISPLAY
290
     0
  9
$INSUNITS
 70
     0
  9
$HYPERLINKBASE
  1

  9
$STYLESHEET
  1

  9
$XEDIT
290
     1
  9
$CEPSNTYPE
380
     0
  9
$PSTYLEMODE
290
     1
  9
$FINGERPRINTGUID
  2
{9E6D1B0F-A4BE-11D6-AAC6-0010A4A25215}
  9
$VERSIONGUID
  2
{9E6D1B18-A4BE-11D6-AAC6-0010A4A25215}
  9
$EXTNAMES
290
     1
  9
$PSVPSCALE
 40
0.0
  9
$OLESTARTUP
290
     0
  0
ENDSEC
  0
SECTION
  2
CLASSES
  0
CLASS
  1
DICTIONARYVAR
  2
AcDbDictionaryVar
  3
AutoCAD 2000
 90
    32768
280
     0
281
     0
  0
CLASS
  1
LWPOLYLINE
  2
AcDbPolyline
  3
AutoCAD 2000
 90
    32768
280
     0
281
     1
  0
CLASS
  1
ACDBDICTIONARYWDFLT
  2
AcDbDictionaryWithDefault
  3
AutoCAD 2000
 90
        0
280
     0
281
     0
  0
CLASS
  1
ACDBPLACEHOLDER
  2
AcDbPlaceHolder
  3
AutoCAD 2000
 90
        0
280
     0
281
     0
  0
CLASS
  1
LAYOUT
  2
AcDbLayout
  3
AutoCAD 2000
 90
        0
280
     0
281
     0
  0
ENDSEC
  0
SECTION
  2
TABLES
  0
TABLE
  2
VPORT
  5
12
330
0
100
AcDbSymbolTable
 70
     3
  0
VPORT
  5
1B2
330
12
100
AcDbSymbolTableRecord
100
AcDbViewportTableRecord
  2
*Active
 70
     0
 10
0.0
 20
0.0
 11
1.0
 21
1.0
 12
255.8920332297547
 22
-111.0656469468217
 13
0.0
 23
0.0
 14
5.0
 24
5.0
 15
10.0
 25
10.0
 16
0.0
 26
0.0
 36
1.0
 17
0.0
 27
0.0
 37
0.0
 40
581.5010324463019
 41
1.760948905109489
 42
50.0
 43
0.0
 44
0.0
 50
0.0
 51
0.0
 71
     0
 72
 20000
 73
     1
 74
     1
 75
     0
 76
     0
 77
     0
 78
     0
281
     0
 65
     1
110
0.0
120
0.0
130
0.0
111
1.0
121
0.0
131
0.0
112
0.0
122
1.0
132
0.0
 79
     0
146
0.0
  0
ENDTAB
  0
TABLE
  2
LTYPE
  5
D
330
0
100
AcDbSymbolTable
 70
     1
  0
LTYPE
  5
E
330
D
100
AcDbSymbolTableRecord
100
AcDbLinetypeTableRecord
  2
BYBLOCK
 70
     0
  3

 72
    65
 73
     0
 40
0.0
  0
LTYPE
  5
F
330
D
100
AcDbSymbolTableRecord
100
AcDbLinetypeTableRecord
  2
BYLAYER
 70
     0
  3

 72
    65
 73
     0
 40
0.0
  0
LTYPE
  5
5
330
D
100
AcDbSymbolTableRecord
100
AcDbLinetypeTableRecord
  2
CONTINUOUS
 70
     0
  3
Solid line
 72
    65
 73
     0
 40
0.0
  0
ENDTAB
  0
TABLE
  2
LAYER
  5
A
330
0
100
AcDbSymbolTable
 70
    10
  0
LAYER
  5
4
330
A
100
AcDbSymbolTableRecord
100
AcDbLayerTableRecord
  2
0
 70
     0
 62
     7
  6
CONTINUOUS
370
    -3
390
FF
  0
LAYER
  5
2D
330
A
100
AcDbSymbolTableRecord
100
AcDbLayerTableRecord
  2
ANCON-TIE
 70
     0
 62
     1
  6
CONTINUOUS
370
    -3
390
FF
  0
LAYER
  5
F8
330
A
100
AcDbSymbolTableRecord
100
AcDbLayerTableRecord
  2
ANCON-TEXT
 70
     0
 62
     6
  6
CONTINUOUS
370
    -3
390
FF
  0
LAYER
  5
28
330
A
100
AcDbSymbolTableRecord
100
AcDbLayerTableRecord
  2
ANCON-MASONRY
 70
     0
 62
     1
  6
CONTINUOUS
370
    -3
390
FF
  0
LAYER
  5
A6
330
A
100
AcDbSymbolTableRecord
100
AcDbLayerTableRecord
  2
ANCON-DIM
 70
     0
 62
     1
  6
CONTINUOUS
370
    -3
390
FF
  0
LAYER
  5
23
330
A
100
AcDbSymbolTableRecord
100
AcDbLayerTableRecord
  2
ANCON-WINDPOST
 70
     0
 62
     3
  6
CONTINUOUS
370
    -3
390
FF
  0
LAYER
  5
2B
330
A
100
AcDbSymbolTableRecord
100
AcDbLayerTableRecord
  2
ANCON-STRUC
 70
     0
 62
     2
  6
CONTINUOUS
370
    -3
390
FF
  0
LAYER
  5
60
330
A
100
AcDbSymbolTableRecord
100
AcDbLayerTableRecord
  2
ANCON-CHANNEL
 70
     0
 62
     1
  6
CONTINUOUS
370
    -3
390
FF
  0
LAYER
  5
1F
330
A
100
AcDbSymbolTableRecord
100
AcDbLayerTableRecord
  2
ANCON-BOLT
 70
     0
 62
     1
  6
CONTINUOUS
370
    -3
390
FF
  0
LAYER
  5
10C
330
A
100
AcDbSymbolTableRecord
100
AcDbLayerTableRecord
  2
ANCON-ORIGIN
 70
     0
 62
     1
  6
CONTINUOUS
370
    -3
390
FF
  0
ENDTAB
  0
TABLE
  2
STYLE
  5
B
330
0
100
AcDbSymbolTable
 70
     2
  0
STYLE
  5
C
330
B
100
AcDbSymbolTableRecord
100
AcDbTextStyleTableRecord
  2
STANDARD
 70
     0
 40
0.0
 41
1.0
 50
0.0
 71
     0
 42
3.0
  3
txt.shx
  4

  0
STYLE
  5
1B
330
B
100
AcDbSymbolTableRecord
100
AcDbTextStyleTableRecord
  2
ROMANS
 70
     0
 40
9.0
 41
1.0
 50
0.0
 71
     0
 42
9.0
  3
romans
  4

  0
ENDTAB
  0
TABLE
  2
VIEW
  5
10
330
0
100
AcDbSymbolTable
 70
     0
  0
ENDTAB
  0
TABLE
  2
UCS
  5
11
330
0
100
AcDbSymbolTable
 70
     0
  0
ENDTAB
  0
TABLE
  2
APPID
  5
14
330
0
100
AcDbSymbolTable
 70
     1
  0
APPID
  5
15
330
14
100
AcDbSymbolTableRecord
100
AcDbRegAppTableRecord
  2
ACAD
 70
     0
  0
ENDTAB
  0
TABLE
  2
DIMSTYLE
  5
16
330
0
100
AcDbSymbolTable
 70
     2
100
AcDbDimStyleTable
 71
     0
  0
DIMSTYLE
105
1D
330
16
100
AcDbSymbolTableRecord
100
AcDbDimStyleTableRecord
  2
1-5
 70
     0
 40
5.0
 41
0.0
 42
4.5
 43
0.0
 44
1.5
 45
1.0
 46
1.25
 73
     0
 74
     0
 77
     1
 78
    12
140
1.8
141
0.0
142
1.0
143
0.04
146
1.25
147
0.1
271
     2
272
     2
279
     2
284
    12
285
    12
286
    12
340
1B
  0
DIMSTYLE
105
10D
330
16
100
AcDbSymbolTableRecord
100
AcDbDimStyleTableRecord
  2
STANDARD
 70
     0
340
C
  0
ENDTAB
  0
TABLE
  2
BLOCK_RECORD
  5
1
330
0
100
AcDbSymbolTable
 70
     2
  0
BLOCK_RECORD
  5
2
330
1
100
AcDbSymbolTableRecord
100
AcDbBlockTableRecord
  2
*MODEL_SPACE
340
102
  0
BLOCK_RECORD
  5
7
330
1
100
AcDbSymbolTableRecord
100
AcDbBlockTableRecord
  2
*PAPER_SPACE
340
103
  0
BLOCK_RECORD
  5
108
330
1
100
AcDbSymbolTableRecord
100
AcDbBlockTableRecord
  2
OR
340
0
  0
BLOCK_RECORD
  5
10E
330
1
100
AcDbSymbolTableRecord
100
AcDbBlockTableRecord
  2
30channel
340
0
102
{BLKREFS
331
160
102
}
  0
ENDTAB
  0
ENDSEC
  0
SECTION
  2
BLOCKS
  0
BLOCK
  5
3
330
2
100
AcDbEntity
  8
0
100
AcDbBlockBegin
  2
*MODEL_SPACE
 70
     0
 10
0.0
 20
0.0
 30
0.0
  3
*MODEL_SPACE
  1

  0
ENDBLK
  5
6
330
2
100
AcDbEntity
  8
0
100
AcDbBlockEnd
  0
BLOCK
  5
8
330
7
100
AcDbEntity
 67
     1
  8
0
100
AcDbBlockBegin
  2
*PAPER_SPACE
 70
     0
 10
0.0
 20
0.0
 30
0.0
  3
*PAPER_SPACE
  1

  0
ENDBLK
  5
9
330
7
100
AcDbEntity
 67
     1
  8
0
100
AcDbBlockEnd
  0
BLOCK
  5
10A
330
108
100
AcDbEntity
  8
0
100
AcDbBlockBegin
  2
OR
 70
     0
 10
0.0
 20
0.0
 30
0.0
  3
OR
  1

  0
LWPOLYLINE
  5
109
330
108
100
AcDbEntity
  8
ANCON-ORIGIN
100
AcDbPolyline
 90
        5
 70
     0
 43
0.0
 10
-10.17326135673704
 20
-6.213917405744268
 10
-10.17326135673704
 20
6.213917405744268
 10
10.17326135673704
 20
-6.213917405744268
 10
10.17326135673704
 20
6.213917405744268
 10
-10.17326135673704
 20
-6.213917405744268
  0
ENDBLK
  5
10B
330
108
100
AcDbEntity
  8
0
100
AcDbBlockEnd
  0
BLOCK
  5
15E
330
10E
100
AcDbEntity
  8
0
100
AcDbBlockBegin
  2
30channel
 70
     0
 10
0.0
 20
0.0
 30
0.0
  3
30channel
  1

  0
TEXT
  5
10F
330
10E
100
AcDbEntity
  8
ANCON-TEXT
100
AcDbText
 10
-388.3538807824293
 20
-45.23572445620127
 30
0.0
 40
9.0
  1

  7
ROMANS
100
AcDbText
  0
TEXT
  5
110
330
10E
100
AcDbEntity
  8
ANCON-TEXT
100
AcDbText
 10
-388.3538807824293
 20
-59.59282782648878
 30
0.0
 40
9.0
  1

  7
ROMANS
100
AcDbText
  0
TEXT
  5
111
330
10E
100
AcDbEntity
  8
ANCON-TEXT
100
AcDbText
 10
-333.3312888541478
 20
-30.5001404103975
 30
0.0
 40
9.0
  1

  7
ROMANS
100
AcDbText
  0
TEXT
  5
112
330
10E
100
AcDbEntity
  8
ANCON-TEXT
100
AcDbText
 10
-333.3312888541478
 20
13.21414530388827
 30
0.0
 40
9.0
  1
STANDARD EDGE : 75mm
  7
ROMANS
100
AcDbText
  0
TEXT
  5
113
330
10E
100
AcDbEntity
  8
ANCON-TEXT
100
AcDbText
 10
-333.3312888541478
 20
27.78557387531682
 30
0.0
 40
9.0
  1
ANCON 30/20 CAST-IN CHANNEL
  7
ROMANS
100
AcDbText
  0
LINE
  5
114
330
10E
100
AcDbEntity
  8
ANCON-CHANNEL
100
AcDbLine
 10
-284.8827690584341
 20
61.33809506595651
 30
0.0
 11
-284.8827690584341
 21
72.85165908403107
 31
0.0
  0
LINE
  5
115
330
10E
100
AcDbEntity
  8
ANCON-CHANNEL
100
AcDbLine
 10
-270.7594500359755
 20
63.95330328856516
 30
0.0
 11
-270.7594500359755
 21
67.78446787575103
 31
0.0
  0
LINE
  5
116
330
10E
100
AcDbEntity
  8
ANCON-CHANNEL
100
AcDbLine
 10
-271.7594500359755
 20
64.37379761831403
 30
0.0
 11
-271.7594500359755
 21
66.56970877590964
 31
0.0
  0
LINE
  5
117
330
10E
100
AcDbEntity
  8
ANCON-CHANNEL
100
AcDbLine
 10
-270.7594500359755
 20
61.33809506595652
 30
0.0
 11
-270.7594500359755
 21
63.29920329505552
 31
0.0
  0
LINE
  5
118
330
10E
100
AcDbEntity
  8
ANCON-CHANNEL
100
AcDbLine
 10
-269.7594500359755
 20
61.33809506595651
 30
0.0
 11
-269.7594500359755
 21
63.25248078397692
 31
0.0
  0
LINE
  5
119
330
10E
100
AcDbEntity
  8
ANCON-CHANNEL
100
AcDbLine
 10
-269.7594500359755
 20
64.65412717147995
 30
0.0
 11
-269.7594500359755
 21
67.78446787575103
 31
0.0
  0
LINE
  5
11A
330
10E
100
AcDbEntity
  8
ANCON-CHANNEL
100
AcDbLine
 10
-269.7594500359755
 20
68.5787340241701
 30
0.0
 11
-269.7594500359755
 21
70.58775927243061
 31
0.0
  0
LINE
  5
11B
330
10E
100
AcDbEntity
  8
ANCON-CHANNEL
100
AcDbLine
 10
-270.7594500359755
 20
68.25168333825207
 30
0.0
 11
-270.7594500359755
 21
70.40087336309551
 31
0.0
  0
LINE
  5
11C
330
10E
100
AcDbEntity
  8
ANCON-CHANNEL
100
AcDbLine
 10
-271.7594500359755
 20
67.17708901499356
 30
0.0
 11
-271.7594500359755
 21
68.90578471008814
 31
0.0
  0
LINE
  5
11D
330
10E
100
AcDbEntity
  8
ANCON-CHANNEL
100
AcDbLine
 10
-271.7594500359755
 20
69.55988608192427
 30
0.0
 11
-271.7594500359755
 21
72.85165908403107
 31
0.0
  0
LINE
  5
11E
330
10E
100
AcDbEntity
  8
ANCON-CHANNEL
100
AcDbLine
 10
-260.7140562725162
 20
63.95330328856516
 30
0.0
 11
-260.7140562725162
 21
67.78446787575103
 31
0.0
  0
LINE
  5
11F
330
10E
100
AcDbEntity
  8
ANCON-CHANNEL
100
AcDbLine
 10
-261.7140562725162
 20
64.37379761831403
 30
0.0
 11
-261.7140562725162
 21
66.56970877590964
 31
0.0
  0
LINE
  5
120
330
10E
100
AcDbEntity
  8
ANCON-CHANNEL
100
AcDbLine
 10
-259.7140562725162
 20
61.33809506595651
 30
0.0
 11
-259.7140562725162
 21
63.25248078397692
 31
0.0
  0
LINE
  5
121
330
10E
100
AcDbEntity
  8
ANCON-CHANNEL
100
AcDbLine
 10
-260.7140562725162
 20
61.33809506595652
 30
0.0
 11
-260.7140562725162
 21
63.29920329505552
 31
0.0
  0
LINE
  5
122
330
10E
100
AcDbEntity
  8
ANCON-CHANNEL
100
AcDbLine
 10
-260.7140562725162
 20
68.25168333825207
 30
0.0
 11
-260.7140562725162
 21
70.40087336309551
 31
0.0
  0
LINE
  5
123
330
10E
100
AcDbEntity
  8
ANCON-CHANNEL
100
AcDbLine
 10
-259.7140562725162
 20
68.5787340241701
 30
0.0
 11
-259.7140562725162
 21
70.58775927243061
 31
0.0
  0
LINE
  5
124
330
10E
100
AcDbEntity
  8
ANCON-CHANNEL
100
AcDbLine
 10
-259.7140562725162
 20
64.65412717147995
 30
0.0
 11
-259.7140562725162
 21
67.78446787575103
 31
0.0
  0
LINE
  5
125
330
10E
100
AcDbEntity
  8
ANCON-CHANNEL
100
AcDbLine
 10
-261.7140562725162
 20
67.17708901499356
 30
0.0
 11
-261.7140562725162
 21
68.90578471008814
 31
0.0
  0
LINE
  5
126
330
10E
100
AcDbEntity
  8
ANCON-CHANNEL
100
AcDbLine
 10
-261.7140562725162
 20
69.55988608192427
 30
0.0
 11
-261.7140562725162
 21
73.10169586768376
 31
0.0
  0
LINE
  5
127
330
10E
100
AcDbEntity
  8
ANCON-CHANNEL
100
AcDbLine
 10
-250.6686625090569
 20
63.95330328856516
 30
0.0
 11
-250.6686625090569
 21
67.78446787575103
 31
0.0
  0
LINE
  5
128
330
10E
100
AcDbEntity
  8
ANCON-CHANNEL
100
AcDbLine
 10
-251.6686625090569
 20
64.37379761831403
 30
0.0
 11
-251.6686625090569
 21
66.56970877590964
 31
0.0
  0
LINE
  5
129
330
10E
100
AcDbEntity
  8
ANCON-CHANNEL
100
AcDbLine
 10
-250.6686625090569
 20
61.33809506595652
 30
0.0
 11
-250.6686625090569
 21
63.29920329505552
 31
0.0
  0
LINE
  5
12A
330
10E
100
AcDbEntity
  8
ANCON-CHANNEL
100
AcDbLine
 10
-249.6686625090569
 20
61.33809506595651
 30
0.0
 11
-249.6686625090569
 21
63.25248078397692
 31
0.0
  0
LINE
  5
12B
330
10E
100
AcDbEntity
  8
ANCON-CHANNEL
100
AcDbLine
 10
-249.6686625090569
 20
64.65412717147995
 30
0.0
 11
-249.6686625090569
 21
67.78446787575103
 31
0.0
  0
LINE
  5
12C
330
10E
100
AcDbEntity
  8
ANCON-CHANNEL
100
AcDbLine
 10
-249.6686625090569
 20
68.5787340241701
 30
0.0
 11
-249.6686625090569
 21
70.58775927243061
 31
0.0
  0
LINE
  5
12D
330
10E
100
AcDbEntity
  8
ANCON-CHANNEL
100
AcDbLine
 10
-250.6686625090569
 20
68.25168333825207
 30
0.0
 11
-250.6686625090569
 21
70.40087336309551
 31
0.0
  0
LINE
  5
12E
330
10E
100
AcDbEntity
  8
ANCON-CHANNEL
100
AcDbLine
 10
-251.6686625090569
 20
67.17708901499356
 30
0.0
 11
-251.6686625090569
 21
68.90578471008814
 31
0.0
  0
LINE
  5
12F
330
10E
100
AcDbEntity
  8
ANCON-CHANNEL
100
AcDbLine
 10
-251.6686625090569
 20
69.55988608192427
 30
0.0
 11
-251.6686625090569
 21
73.10169586768376
 31
0.0
  0
LINE
  5
130
330
10E
100
AcDbEntity
  8
ANCON-CHANNEL
100
AcDbLine
 10
-231.5778749821383
 20
64.37379761831403
 30
0.0
 11
-231.5778749821383
 21
66.56970877590964
 31
0.0
  0
LINE
  5
131
330
10E
100
AcDbEntity
  8
ANCON-CHANNEL
100
AcDbLine
 10
-240.6232687455976
 20
63.95330328856516
 30
0.0
 11
-240.6232687455976
 21
67.78446787575103
 31
0.0
  0
LINE
  5
132
330
10E
100
AcDbEntity
  8
ANCON-CHANNEL
100
AcDbLine
 10
-241.6232687455976
 20
64.37379761831403
 30
0.0
 11
-241.6232687455976
 21
66.56970877590964
 31
0.0
  0
LINE
  5
133
330
10E
100
AcDbEntity
  8
ANCON-CHANNEL
100
AcDbLine
 10
-239.6232687455976
 20
61.33809506595651
 30
0.0
 11
-239.6232687455976
 21
63.25248078397692
 31
0.0
  0
LINE
  5
134
330
10E
100
AcDbEntity
  8
ANCON-CHANNEL
100
AcDbLine
 10
-240.6232687455976
 20
61.33809506595652
 30
0.0
 11
-240.6232687455976
 21
63.29920329505552
 31
0.0
  0
LINE
  5
135
330
10E
100
AcDbEntity
  8
ANCON-CHANNEL
100
AcDbLine
 10
-239.6232687455976
 20
68.5787340241701
 30
0.0
 11
-239.6232687455976
 21
70.58775927243061
 31
0.0
  0
LINE
  5
136
330
10E
100
AcDbEntity
  8
ANCON-CHANNEL
100
AcDbLine
 10
-239.6232687455976
 20
64.65412717147995
 30
0.0
 11
-239.6232687455976
 21
67.78446787575103
 31
0.0
  0
LINE
  5
137
330
10E
100
AcDbEntity
  8
ANCON-CHANNEL
100
AcDbLine
 10
-240.6232687455976
 20
68.25168333825207
 30
0.0
 11
-240.6232687455976
 21
70.40087336309551
 31
0.0
  0
LINE
  5
138
330
10E
100
AcDbEntity
  8
ANCON-CHANNEL
100
AcDbLine
 10
-241.6232687455976
 20
67.17708901499356
 30
0.0
 11
-241.6232687455976
 21
68.90578471008814
 31
0.0
  0
LINE
  5
139
330
10E
100
AcDbEntity
  8
ANCON-CHANNEL
100
AcDbLine
 10
-241.6232687455976
 20
69.55988608192427
 30
0.0
 11
-241.6232687455976
 21
72.85165908403107
 31
0.0
  0
LINE
  5
13A
330
10E
100
AcDbEntity
  8
ANCON-CHANNEL
100
AcDbLine
 10
-231.5778749821383
 20
67.17708901499356
 30
0.0
 11
-231.5778749821383
 21
68.90578471008814
 31
0.0
  0
LINE
  5
13B
330
10E
100
AcDbEntity
  8
ANCON-CHANNEL
100
AcDbLine
 10
-231.5778749821383
 20
69.55988608192427
 30
0.0
 11
-231.5778749821383
 21
73.10169586768376
 31
0.0
  0
LINE
  5
13C
330
10E
100
AcDbEntity
  8
ANCON-CHANNEL
100
AcDbLine
 10
-230.5778749821383
 20
63.95330328856516
 30
0.0
 11
-230.5778749821383
 21
67.78446787575103
 31
0.0
  0
LINE
  5
13D
330
10E
100
AcDbEntity
  8
ANCON-CHANNEL
100
AcDbLine
 10
-229.5778749821383
 20
61.33809506595651
 30
0.0
 11
-229.5778749821383
 21
63.25248078397692
 31
0.0
  0
LINE
  5
13E
330
10E
100
AcDbEntity
  8
ANCON-CHANNEL
100
AcDbLine
 10
-230.5778749821383
 20
61.33809506595652
 30
0.0
 11
-230.5778749821383
 21
63.29920329505552
 31
0.0
  0
LINE
  5
13F
330
10E
100
AcDbEntity
  8
ANCON-CHANNEL
100
AcDbLine
 10
-229.5778749821383
 20
64.65412717147995
 30
0.0
 11
-229.5778749821383
 21
67.78446787575103
 31
0.0
  0
LINE
  5
140
330
10E
100
AcDbEntity
  8
ANCON-CHANNEL
100
AcDbLine
 10
-229.5778749821383
 20
68.5787340241701
 30
0.0
 11
-229.5778749821383
 21
70.58775927243061
 31
0.0
  0
LINE
  5
141
330
10E
100
AcDbEntity
  8
ANCON-CHANNEL
100
AcDbLine
 10
-230.5778749821383
 20
68.25168333825207
 30
0.0
 11
-230.5778749821383
 21
70.40087336309551
 31
0.0
  0
LINE
  5
142
330
10E
100
AcDbEntity
  8
ANCON-CHANNEL
100
AcDbLine
 10
-217.8827690584341
 20
61.33809506595651
 30
0.0
 11
-217.8827690584342
 21
72.85165908403105
 31
0.0
  0
LINE
  5
143
330
10E
100
AcDbEntity
  8
ANCON-CHANNEL
100
AcDbLine
 10
-214.8827690584342
 20
61.33809506595652
 30
0.0
 11
-214.8827690584341
 21
72.85165908403105
 31
0.0
  0
LINE
  5
144
330
10E
100
AcDbEntity
  8
ANCON-CHANNEL
100
AcDbLine
 10
-220.3827690584341
 20
67.09487707499381
 30
0.0
 11
-220.3827690584342
 21
72.85165908403108
 31
0.0
  0
LINE
  5
145
330
10E
100
AcDbEntity
  8
ANCON-CHANNEL
100
AcDbLine
 10
-220.3827690584341
 20
67.09487707499381
 30
0.0
 11
-220.3827690584342
 21
61.33809506595651
 31
0.0
  0
LINE
  5
146
330
10E
100
AcDbEntity
  8
ANCON-CHANNEL
100
AcDbLine
 10
-201.3827690584341
 20
74.0948770749938
 30
0.0
 11
-201.3827690584341
 21
74.59487707499381
 31
0.0
  0
LINE
  5
147
330
10E
100
AcDbEntity
  8
ANCON-CHANNEL
100
AcDbLine
 10
-201.3827690584341
 20
74.59487707499381
 30
0.0
 11
-201.3827690584341
 21
74.0948770749938
 31
0.0
  0
LINE
  5
148
330
10E
100
AcDbEntity
  8
ANCON-CHANNEL
100
AcDbLine
 10
-201.3827690584341
 20
59.04845893241088
 30
0.0
 11
-201.3827690584341
 21
60.0948770749938
 31
0.0
  0
LINE
  5
149
330
10E
100
AcDbEntity
  8
ANCON-CHANNEL
100
AcDbLine
 10
-201.3827690584341
 20
59.59487707499381
 30
0.0
 11
-201.3827690584341
 21
59.04845893241087
 31
0.0
  0
LINE
  5
14A
330
10E
100
AcDbEntity
  8
ANCON-CHANNEL
100
AcDbLine
 10
-218.7470324555025
 20
75.19751687607386
 30
0.0
 11
-207.4384431731572
 21
79.36383924325368
 31
0.0
  0
LINE
  5
14B
330
10E
100
AcDbEntity
  8
ANCON-CHANNEL
100
AcDbLine
 10
-207.4384431731572
 20
54.82591490673385
 30
0.0
 11
-218.7470324555025
 21
58.99223727391373
 31
0.0
  0
LINE
  5
14C
330
10E
100
AcDbEntity
  8
ANCON-CHANNEL
100
AcDbLine
 10
-217.8827690584341
 20
72.85165908403105
 30
0.0
 11
-206.5741797760888
 21
77.0179814512109
 31
0.0
  0
LINE
  5
14D
330
10E
100
AcDbEntity
  8
ANCON-CHANNEL
100
AcDbLine
 10
-206.5741797760888
 20
57.17177269877665
 30
0.0
 11
-217.8827690584341
 21
61.33809506595651
 31
0.0
  0
LINE
  5
14E
330
10E
100
AcDbEntity
  8
ANCON-CHANNEL
100
AcDbLine
 10
-220.3827690584342
 20
72.85165908403107
 30
0.0
 11
-284.8827690584341
 21
72.85165908403105
 31
0.0
  0
LINE
  5
14F
330
10E
100
AcDbEntity
  8
ANCON-CHANNEL
100
AcDbLine
 10
-220.3827690584341
 20
61.33809506595651
 30
0.0
 11
-284.8827690584341
 21
61.33809506595651
 31
0.0
  0
LINE
  5
150
330
10E
100
AcDbEntity
  8
ANCON-CHANNEL
100
AcDbLine
 10
-217.8827690584342
 20
72.85165908403105
 30
0.0
 11
-214.8827690584341
 21
72.85165908403105
 31
0.0
  0
LINE
  5
151
330
10E
100
AcDbEntity
  8
ANCON-CHANNEL
100
AcDbLine
 10
-217.8827690584341
 20
61.33809506595651
 30
0.0
 11
-214.8827690584341
 21
61.33809506595652
 31
0.0
  0
ARC
  5
152
330
10E
100
AcDbEntity
  8
ANCON-CHANNEL
100
AcDbCircle
 10
-217.8827690584342
 20
72.85165908403108
 30
0.0
 40
2.5
100
AcDbArc
 50
110.224859431168
 51
180.0
  0
ARC
  5
153
330
10E
100
AcDbEntity
  8
ANCON-CHANNEL
100
AcDbCircle
 10
-217.8827690584342
 20
61.33809506595651
 30
0.0
 40
2.5
100
AcDbArc
 50
180.0
 51
249.7751405688318
  0
LINE
  5
154
330
10E
100
AcDbEntity
  8
ANCON-CHANNEL
100
AcDbLine
 10
-203.8827690584341
 20
59.04845893241087
 30
0.0
 11
-203.8827690584341
 21
60.0948770749938
 31
0.0
  0
ARC
  5
155
330
10E
100
AcDbEntity
  8
ANCON-CHANNEL
100
AcDbCircle
 10
-205.8827690584341
 20
75.14129521757668
 30
0.0
 40
2.0
100
AcDbArc
 50
0.0000000000000509
 51
110.2248594311681
  0
ARC
  5
156
330
10E
100
AcDbEntity
  8
ANCON-CHANNEL
100
AcDbCircle
 10
-205.8827690584341
 20
59.04845893241087
 30
0.0
 40
2.0
100
AcDbArc
 50
249.7751405688318
 51
0.0000000000000636
  0
ARC
  5
157
330
10E
100
AcDbEntity
  8
ANCON-CHANNEL
100
AcDbCircle
 10
-205.8827690584341
 20
75.14129521757668
 30
0.0
 40
4.5
100
AcDbArc
 50
0.0000000000000509
 51
110.2248594311681
  0
ARC
  5
158
330
10E
100
AcDbEntity
  8
ANCON-CHANNEL
100
AcDbCircle
 10
-205.8827690584341
 20
59.04845893241087
 30
0.0
 40
4.5
100
AcDbArc
 50
249.7751405688318
 51
0.0000000000000636
  0
LINE
  5
159
330
10E
100
AcDbEntity
  8
ANCON-CHANNEL
100
AcDbLine
 10
-203.8827690584342
 20
74.0948770749938
 30
0.0
 11
-203.8827690584341
 21
75.14129521757668
 31
0.0
  0
LINE
  5
15A
330
10E
100
AcDbEntity
  8
ANCON-CHANNEL
100
AcDbLine
 10
-201.3827690584341
 20
74.0948770749938
 30
0.0
 11
-201.3827690584341
 21
75.14129521757668
 31
0.0
  0
LINE
  5
15B
330
10E
100
AcDbEntity
  8
ANCON-CHANNEL
100
AcDbLine
 10
-201.3827690584341
 20
60.09487707499379
 30
0.0
 11
-201.3827690584341
 21
59.59487707499381
 31
0.0
  0
LINE
  5
15C
330
10E
100
AcDbEntity
  8
ANCON-CHANNEL
100
AcDbLine
 10
-203.8827690584342
 20
74.0948770749938
 30
0.0
 11
-201.3827690584341
 21
74.0948770749938
 31
0.0
  0
LINE
  5
15D
330
10E
100
AcDbEntity
  8
ANCON-CHANNEL
100
AcDbLine
 10
-203.8827690584341
 20
60.0948770749938
 30
0.0
 11
-201.3827690584341
 21
60.09487707499379
 31
0.0
  0
ENDBLK
  5
15F
330
10E
100
AcDbEntity
  8
0
100
AcDbBlockEnd
  0
ENDSEC
  0
SECTION
  2
ENTITIES
  0
CIRCLE
  5
1E
330
2
100
AcDbEntity
  8
ANCON-BOLT
100
AcDbCircle
 10
40.00000000000006
 20
-40.0
 30
0.0
 40
8.660254037844424
  0
LWPOLYLINE
  5
20
330
2
100
AcDbEntity
  8
ANCON-BOLT
100
AcDbPolyline
 90
        6
 70
   129
 43
0.0
 10
35.00000000000005
 20
-48.66025403784442
 10
45.00000000000006
 20
-48.66025403784442
 10
50.00000000000006
 20
-40.0
 10
45.00000000000006
 20
-31.33974596215557
 10
35.00000000000005
 20
-31.33974596215557
 10
30.00000000000005
 20
-40.0
  0
CIRCLE
  5
21
330
2
100
AcDbEntity
  8
ANCON-BOLT
100
AcDbCircle
 10
40.00000000000006
 20
-40.0
 30
0.0
 40
12.76559680819934
  0
LINE
  5
22
330
2
100
AcDbEntity
  8
ANCON-WINDPOST
100
AcDbLine
 10
70.00000000000006
 20
90.0
 30
0.0
 11
70.00000000000006
 21
-390.0
 31
0.0
  0
LINE
  5
24
330
2
100
AcDbEntity
  8
ANCON-WINDPOST
100
AcDbLine
 10
6.0
 20
-90.0
 30
0.0
 11
6.0
 21
90.00000000000012
 31
0.0
  0
LINE
  5
25
330
2
100
AcDbEntity
  8
ANCON-WINDPOST
100
AcDbLine
 10
0.0
 20
-90.0
 30
0.0
 11
0.0
 21
90.00000000000012
 31
0.0
  0
LINE
  5
26
330
2
100
AcDbEntity
  8
ANCON-WINDPOST
100
AcDbLine
 10
70.00000000000006
 20
50.0
 30
0.0
 11
70.00000000000006
 21
-90.00000000000012
 31
0.0
  0
LINE
  5
27
330
2
100
AcDbEntity
  8
ANCON-MASONRY
100
AcDbLine
 10
100.0
 20
-25.0
 30
0.0
 11
100.0
 21
-90.0
 31
0.0
  0
LINE
  5
29
330
2
100
AcDbEntity
  8
ANCON-MASONRY
100
AcDbLine
 10
202.4999999999999
 20
-25.0
 30
0.0
 11
202.4999999999999
 21
-90.0
 31
0.0
  0
LINE
  5
2A
330
2
100
AcDbEntity
  8
ANCON-STRUC
100
AcDbLine
 10
0.0
 20
-90.0
 30
0.0
 11
0.0
 21
125.0
 31
0.0
  0
LINE
  5
2C
330
2
100
AcDbEntity
  8
ANCON-TIE
100
AcDbLine
 10
-65.0
 20
-318.75
 30
0.0
 11
10.00000000000005
 21
-318.75
 31
0.0
  0
LINE
  5
2E
330
2
100
AcDbEntity
  8
ANCON-TIE
100
AcDbLine
 10
-65.0
 20
-321.2499999999999
 30
0.0
 11
10.00000000000005
 21
-321.2499999999999
 31
0.0
  0
LINE
  5
2F
330
2
100
AcDbEntity
  8
ANCON-MASONRY
100
AcDbLine
 10
0.0
 20
-325.0
 30
0.0
 11
-140.0
 21
-325.0
 31
0.0
  0
LINE
  5
30
330
2
100
AcDbEntity
  8
ANCON-MASONRY
100
AcDbLine
 10
0.0
 20
-315.0
 30
0.0
 11
-140.0
 21
-315.0
 31
0.0
  0
LINE
  5
31
330
2
100
AcDbEntity
  8
ANCON-MASONRY
100
AcDbLine
 10
0.0
 20
-100.0
 30
0.0
 11
-140.0
 21
-100.0
 31
0.0
  0
LINE
  5
32
330
2
100
AcDbEntity
  8
ANCON-STRUC
100
AcDbLine
 10
0.0
 20
-90.0
 30
0.0
 11
-191.2271534864024
 21
-90.0
 31
0.0
  0
LINE
  5
33
330
2
100
AcDbEntity
  8
ANCON-MASONRY
100
AcDbLine
 10
-140.0
 20
-100.0
 30
0.0
 11
-140.0
 21
-315.0
 31
0.0
  0
LINE
  5
34
330
2
100
AcDbEntity
  8
ANCON-MASONRY
100
AcDbLine
 10
-140.0
 20
-325.0
 30
0.0
 11
-140.0
 21
-390.0
 31
0.0
  0
LINE
  5
35
330
2
100
AcDbEntity
  8
ANCON-TIE
100
AcDbLine
 10
-65.0
 20
-321.2499999999999
 30
0.0
 11
-65.0
 21
-318.75
 31
0.0
  0
LINE
  5
36
330
2
100
AcDbEntity
  8
ANCON-WINDPOST
100
AcDbLine
 10
10.00000000000005
 20
-90.00000000000012
 30
0.0
 11
10.00000000000005
 21
-390.0
 31
0.0
  0
LINE
  5
37
330
2
100
AcDbEntity
  8
ANCON-MASONRY
100
AcDbLine
 10
100.0
 20
-250.0
 30
0.0
 11
100.0
 21
-315.0
 31
0.0
  0
LINE
  5
38
330
2
100
AcDbEntity
  8
ANCON-MASONRY
100
AcDbLine
 10
202.4999999999999
 20
-250.0
 30
0.0
 11
202.4999999999999
 21
-315.0
 31
0.0
  0
LINE
  5
39
330
2
100
AcDbEntity
  8
ANCON-MASONRY
100
AcDbLine
 10
0.0
 20
-100.0
 30
0.0
 11
0.0
 21
-315.0
 31
0.0
  0
LINE
  5
3A
330
2
100
AcDbEntity
  8
ANCON-TIE
100
AcDbLine
 10
92.50440866282003
 20
-321.2499999999999
 30
0.0
 11
165.0
 21
-321.2499999999999
 31
0.0
  0
LINE
  5
3B
330
2
100
AcDbEntity
  8
ANCON-TIE
100
AcDbLine
 10
92.50440866282003
 20
-318.75
 30
0.0
 11
165.0
 21
-318.75
 31
0.0
  0
LINE
  5
3C
330
2
100
AcDbEntity
  8
ANCON-MASONRY
100
AcDbLine
 10
100.0
 20
-325.0
 30
0.0
 11
202.4999999999999
 21
-325.0
 31
0.0
  0
LINE
  5
3D
330
2
100
AcDbEntity
  8
ANCON-MASONRY
100
AcDbLine
 10
100.0
 20
-315.0
 30
0.0
 11
202.4999999999999
 21
-315.0
 31
0.0
  0
LINE
  5
3E
330
2
100
AcDbEntity
  8
ANCON-MASONRY
100
AcDbLine
 10
0.0
 20
-325.0
 30
0.0
 11
0.0
 21
-390.0
 31
0.0
  0
LINE
  5
3F
330
2
100
AcDbEntity
  8
ANCON-MASONRY
100
AcDbLine
 10
100.0
 20
-325.0
 30
0.0
 11
100.0
 21
-390.0
 31
0.0
  0
LINE
  5
40
330
2
100
AcDbEntity
  8
ANCON-TIE
100
AcDbLine
 10
85.00440866282003
 20
-325.2499999999999
 30
0.0
 11
92.50440866282003
 21
-321.2499999999999
 31
0.0
  0
LINE
  5
41
330
2
100
AcDbEntity
  8
ANCON-TIE
100
AcDbLine
 10
85.00440866282003
 20
-322.75
 30
0.0
 11
92.50440866282003
 21
-318.75
 31
0.0
  0
LINE
  5
42
330
2
100
AcDbEntity
  8
ANCON-TIE
100
AcDbLine
 10
70.00000000000006
 20
-318.75
 30
0.0
 11
77.50440866282002
 21
-318.75
 31
0.0
  0
LINE
  5
43
330
2
100
AcDbEntity
  8
ANCON-TIE
100
AcDbLine
 10
70.00000000000006
 20
-321.2499999999999
 30
0.0
 11
77.50440866282002
 21
-321.2499999999999
 31
0.0
  0
LINE
  5
44
330
2
100
AcDbEntity
  8
ANCON-TIE
100
AcDbLine
 10
77.50440866282002
 20
-321.2499999999999
 30
0.0
 11
85.00440866282003
 21
-325.2499999999999
 31
0.0
  0
LINE
  5
45
330
2
100
AcDbEntity
  8
ANCON-TIE
100
AcDbLine
 10
77.50440866282002
 20
-318.75
 30
0.0
 11
85.00440866282003
 21
-322.75
 31
0.0
  0
LINE
  5
46
330
2
100
AcDbEntity
  8
ANCON-MASONRY
100
AcDbLine
 10
202.4999999999999
 20
-325.0
 30
0.0
 11
202.4999999999999
 21
-390.0
 31
0.0
  0
LINE
  5
47
330
2
100
AcDbEntity
  8
ANCON-TIE
100
AcDbLine
 10
165.0
 20
-318.75
 30
0.0
 11
165.0
 21
-321.2499999999999
 31
0.0
  0
LINE
  5
48
330
2
100
AcDbEntity
  8
ANCON-TIE
100
AcDbLine
 10
92.50440866282003
 20
-93.74999999999994
 30
0.0
 11
165.0
 21
-93.74999999999994
 31
0.0
  0
LINE
  5
49
330
2
100
AcDbEntity
  8
ANCON-TIE
100
AcDbLine
 10
92.50440866282003
 20
-96.24999999999994
 30
0.0
 11
165.0
 21
-96.24999999999994
 31
0.0
  0
LINE
  5
4A
330
2
100
AcDbEntity
  8
ANCON-MASONRY
100
AcDbLine
 10
100.0
 20
-90.0
 30
0.0
 11
202.4999999999999
 21
-90.0
 31
0.0
  0
LINE
  5
4B
330
2
100
AcDbEntity
  8
ANCON-MASONRY
100
AcDbLine
 10
100.0
 20
-250.0
 30
0.0
 11
202.4999999999999
 21
-250.0
 31
0.0
  0
LINE
  5
4C
330
2
100
AcDbEntity
  8
ANCON-MASONRY
100
AcDbLine
 10
100.0
 20
-175.0
 30
0.0
 11
202.4999999999999
 21
-175.0
 31
0.0
  0
LINE
  5
4D
330
2
100
AcDbEntity
  8
ANCON-MASONRY
100
AcDbLine
 10
100.0
 20
-240.0
 30
0.0
 11
202.4999999999999
 21
-240.0
 31
0.0
  0
LINE
  5
4E
330
2
100
AcDbEntity
  8
ANCON-MASONRY
100
AcDbLine
 10
100.0
 20
-165.0
 30
0.0
 11
202.4999999999999
 21
-165.0
 31
0.0
  0
LINE
  5
4F
330
2
100
AcDbEntity
  8
ANCON-MASONRY
100
AcDbLine
 10
100.0
 20
-100.0
 30
0.0
 11
202.4999999999999
 21
-100.0
 31
0.0
  0
LINE
  5
50
330
2
100
AcDbEntity
  8
ANCON-MASONRY
100
AcDbLine
 10
100.0
 20
-100.0
 30
0.0
 11
100.0
 21
-165.0
 31
0.0
  0
LINE
  5
51
330
2
100
AcDbEntity
  8
ANCON-MASONRY
100
AcDbLine
 10
100.0
 20
-175.0
 30
0.0
 11
100.0
 21
-240.0
 31
0.0
  0
LINE
  5
52
330
2
100
AcDbEntity
  8
ANCON-WINDPOST
100
AcDbLine
 10
70.00000000000006
 20
-90.00000000000012
 30
0.0
 11
0.0
 21
-90.0
 31
0.0
  0
ARC
  5
53
330
2
100
AcDbEntity
  8
ANCON-BOLT
100
AcDbCircle
 10
40.00000000000006
 20
-59.0
 30
0.0
 40
6.0
100
AcDbArc
 50
180.0
 51
0.0
  0
LINE
  5
54
330
2
100
AcDbEntity
  8
ANCON-BOLT
100
AcDbLine
 10
34.00000000000005
 20
-59.0
 30
0.0
 11
34.00000000000005
 21
-51.26767331215763
 31
0.0
  0
LINE
  5
55
330
2
100
AcDbEntity
  8
ANCON-BOLT
100
AcDbLine
 10
46.00000000000005
 20
-59.0
 30
0.0
 11
46.00000000000005
 21
-51.26767331215763
 31
0.0
  0
LINE
  5
56
330
2
100
AcDbEntity
  8
ANCON-TIE
100
AcDbLine
 10
77.50440866282002
 20
-96.24999999999994
 30
0.0
 11
85.00440866282003
 21
-100.2499999999999
 31
0.0
  0
LINE
  5
57
330
2
100
AcDbEntity
  8
ANCON-TIE
100
AcDbLine
 10
85.00440866282003
 20
-100.2499999999999
 30
0.0
 11
92.50440866282003
 21
-96.24999999999994
 31
0.0
  0
LINE
  5
58
330
2
100
AcDbEntity
  8
ANCON-TIE
100
AcDbLine
 10
85.00440866282003
 20
-97.74999999999995
 30
0.0
 11
92.50440866282003
 21
-93.74999999999994
 31
0.0
  0
LINE
  5
59
330
2
100
AcDbEntity
  8
ANCON-TIE
100
AcDbLine
 10
70.00000000000006
 20
-93.74999999999994
 30
0.0
 11
77.50440866282002
 21
-93.74999999999994
 31
0.0
  0
LINE
  5
5A
330
2
100
AcDbEntity
  8
ANCON-TIE
100
AcDbLine
 10
70.00000000000006
 20
-96.24999999999994
 30
0.0
 11
77.50440866282002
 21
-96.24999999999994
 31
0.0
  0
LINE
  5
5B
330
2
100
AcDbEntity
  8
ANCON-TIE
100
AcDbLine
 10
77.50440866282002
 20
-93.74999999999994
 30
0.0
 11
85.00440866282003
 21
-97.74999999999995
 31
0.0
  0
LINE
  5
5C
330
2
100
AcDbEntity
  8
ANCON-MASONRY
100
AcDbLine
 10
202.4999999999999
 20
-100.0
 30
0.0
 11
202.4999999999999
 21
-165.0
 31
0.0
  0
LINE
  5
5D
330
2
100
AcDbEntity
  8
ANCON-MASONRY
100
AcDbLine
 10
202.4999999999999
 20
-175.0
 30
0.0
 11
202.4999999999999
 21
-240.0
 31
0.0
  0
LINE
  5
5E
330
2
100
AcDbEntity
  8
ANCON-TIE
100
AcDbLine
 10
165.0
 20
-93.74999999999994
 30
0.0
 11
165.0
 21
-96.24999999999994
 31
0.0
  0
LINE
  5
A4
330
2
100
AcDbEntity
  8
ANCON-MASONRY
100
AcDbLine
 10
100.0
 20
60.0
 30
0.0
 11
202.4999999999999
 21
60.0
 31
0.0
  0
LINE
  5
A5
330
2
100
AcDbEntity
  8
ANCON-DIM
100
AcDbLine
 10
100.0
 20
50.0
 30
0.0
 11
202.4999999999999
 21
50.0
 31
0.0
  0
LINE
  5
A7
330
2
100
AcDbEntity
  8
ANCON-MASONRY
100
AcDbLine
 10
100.0
 20
-15.0
 30
0.0
 11
202.4999999999999
 21
-15.0
 31
0.0
  0
LINE
  5
A8
330
2
100
AcDbEntity
  8
ANCON-MASONRY
100
AcDbLine
 10
100.0
 20
-25.0
 30
0.0
 11
202.4999999999999
 21
-25.0
 31
0.0
  0
ARC
  5
A9
330
2
100
AcDbEntity
  8
ANCON-BOLT
100
AcDbCircle
 10
40.00000000000006
 20
59.0
 30
0.0
 40
6.0
100
AcDbArc
 50
0.0
 51
180.0
  0
LINE
  5
AA
330
2
100
AcDbEntity
  8
ANCON-MASONRY
100
AcDbLine
 10
100.0
 20
125.0
 30
0.0
 11
100.0
 21
60.0
 31
0.0
  0
ARC
  5
AD
330
2
100
AcDbEntity
  8
ANCON-BOLT
100
AcDbCircle
 10
16.63882254112934
 20
9.007846098673439
 30
0.0
 40
3.516523566370364
100
AcDbArc
 50
302.3800650937831
 51
57.61993490621232
  0
ARC
  5
AE
330
2
100
AcDbEntity
  8
ANCON-BOLT
100
AcDbCircle
 10
12.7831418988672
 20
9.007846098674576
 30
0.0
 40
3.516523566367934
100
AcDbArc
 50
122.3800650937654
 51
237.6199349063206
  0
LINE
  5
AF
330
2
100
AcDbEntity
  8
ANCON-BOLT
100
AcDbLine
 10
6.0
 20
-16.33309166250006
 30
0.0
 11
6.0
 21
16.33309166250012
 31
0.0
  0
LINE
  5
B0
330
2
100
AcDbEntity
  8
ANCON-BOLT
100
AcDbLine
 10
9.26661833249949
 20
-16.33309166250006
 30
0.0
 11
9.26661833249949
 21
16.33309166250012
 31
0.0
  0
LINE
  5
B1
330
2
100
AcDbEntity
  8
ANCON-BOLT
100
AcDbLine
 10
20.15534610749949
 20
-9.007846098673269
 30
0.0
 11
20.15534610749949
 21
9.007846098672757
 31
0.0
  0
LINE
  5
B2
330
2
100
AcDbEntity
  8
ANCON-BOLT
100
AcDbLine
 10
9.26661833249949
 20
-9.007846098673269
 30
0.0
 11
9.26661833249949
 21
9.007846098672757
 31
0.0
  0
LINE
  5
B7
330
2
100
AcDbEntity
  8
ANCON-BOLT
100
AcDbLine
 10
10.89992749874926
 20
-6.03809164484744
 30
0.0
 11
18.52203694124972
 21
-6.03809164484744
 31
0.0
  0
LINE
  5
B8
330
2
100
AcDbEntity
  8
ANCON-BOLT
100
AcDbLine
 10
10.89992749875545
 20
-11.97760055249904
 30
0.0
 11
18.52203694122869
 21
-11.97760055249904
 31
0.0
  0
LINE
  5
B9
330
2
100
AcDbEntity
  8
ANCON-BOLT
100
AcDbLine
 10
10.89992749874926
 20
6.038091644847099
 30
0.0
 11
18.52203694124972
 21
6.038091644847099
 31
0.0
  0
ARC
  5
C8
330
2
100
AcDbEntity
  8
ANCON-BOLT
100
AcDbCircle
 10
12.7831418988672
 20
-9.007846098674974
 30
0.0
 40
3.516523566367697
100
AcDbArc
 50
122.3800650936769
 51
237.6199349062379
  0
LINE
  5
C9
330
2
100
AcDbEntity
  8
ANCON-BOLT
100
AcDbLine
 10
9.26661833249949
 20
-16.33309166250006
 30
0.0
 11
6.0
 21
-16.33309166250006
 31
0.0
  0
ARC
  5
CB
330
2
100
AcDbEntity
  8
ANCON-BOLT
100
AcDbCircle
 10
21.24421888499358
 20
-0.0000000000005684
 30
0.0
 40
11.9776005524936
100
AcDbArc
 50
149.7273586810818
 51
210.272641318915
  0
ARC
  5
CC
330
2
100
AcDbEntity
  8
ANCON-BOLT
100
AcDbCircle
 10
40.00000000000006
 20
-21.0
 30
0.0
 40
6.0
100
AcDbArc
 50
0.0
 51
180.0
  0
CIRCLE
  5
CD
330
2
100
AcDbEntity
  8
ANCON-BOLT
100
AcDbCircle
 10
40.00000000000006
 20
-40.0
 30
0.0
 40
5.0
  0
LINE
  5
CE
330
2
100
AcDbEntity
  8
ANCON-BOLT
100
AcDbLine
 10
34.00000000000005
 20
-28.73232668784237
 30
0.0
 11
34.00000000000005
 21
-21.0
 31
0.0
  0
CIRCLE
  5
CF
330
2
100
AcDbEntity
  8
ANCON-BOLT
100
AcDbCircle
 10
40.00000000000006
 20
-40.0
 30
0.0
 40
4.0
  0
LINE
  5
D0
330
2
100
AcDbEntity
  8
ANCON-BOLT
100
AcDbLine
 10
46.00000000000005
 20
-28.73232668784237
 30
0.0
 11
46.00000000000005
 21
-21.0
 31
0.0
  0
LINE
  5
D1
330
2
100
AcDbEntity
  8
ANCON-BOLT
100
AcDbLine
 10
20.15534610749949
 20
-5.072515464606681
 30
0.0
 11
40.0
 21
-5.072515464606681
 31
0.0
  0
LINE
  5
D2
330
2
100
AcDbEntity
  8
ANCON-BOLT
100
AcDbLine
 10
20.15534610749949
 20
-6.161388242106681
 30
0.0
 11
38.91112722250005
 21
-6.161388242106681
 31
0.0
  0
LINE
  5
D3
330
2
100
AcDbEntity
  8
ANCON-BOLT
100
AcDbLine
 10
20.15534610749949
 20
4.746939242888288
 30
0.0
 11
40.0
 21
4.746939242888288
 31
0.0
  0
LINE
  5
D4
330
2
100
AcDbEntity
  8
ANCON-BOLT
100
AcDbLine
 10
20.15534610749949
 20
5.835812020388289
 30
0.0
 11
38.91112722249991
 21
5.835812020388289
 31
0.0
  0
ARC
  5
D5
330
2
100
AcDbEntity
  8
ANCON-BOLT
100
AcDbCircle
 10
16.63882254112934
 20
-9.007846098674008
 30
0.0
 40
3.516523566370156
100
AcDbArc
 50
302.3800650937852
 51
57.61993490622021
  0
LINE
  5
D6
330
2
100
AcDbEntity
  8
ANCON-BOLT
100
AcDbLine
 10
20.15534610749949
 20
0.0000000000001137
 30
0.0
 11
20.15534610749949
 21
6.533236664999662
 31
0.0
  0
ARC
  5
D7
330
2
100
AcDbEntity
  8
ANCON-BOLT
100
AcDbCircle
 10
8.177745555006708
 20
-0.0000000000005684
 30
0.0
 40
11.97760055249255
100
AcDbArc
 50
329.727358681081
 51
30.27264131891949
  0
LINE
  5
D8
330
2
100
AcDbEntity
  8
ANCON-BOLT
100
AcDbLine
 10
38.91112722249999
 20
-6.161388242106681
 30
0.0
 11
40.0
 21
-5.072515464606681
 31
0.0
  0
LINE
  5
D9
330
2
100
AcDbEntity
  8
ANCON-BOLT
100
AcDbLine
 10
38.91112722249999
 20
5.835812020388289
 30
0.0
 11
40.0
 21
4.746939242888288
 31
0.0
  0
LINE
  5
DA
330
2
100
AcDbEntity
  8
ANCON-BOLT
100
AcDbLine
 10
38.91112722249999
 20
-6.161388242106681
 30
0.0
 11
38.91112722249999
 21
5.835812020388289
 31
0.0
  0
LINE
  5
DB
330
2
100
AcDbEntity
  8
ANCON-BOLT
100
AcDbLine
 10
40.0
 20
-5.072515464606681
 30
0.0
 11
40.0
 21
4.746939242888288
 31
0.0
  0
LINE
  5
DC
330
2
100
AcDbEntity
  8
ANCON-BOLT
100
AcDbLine
 10
10.89992749873931
 20
11.97760055249898
 30
0.0
 11
18.52203694128439
 21
11.97760055249898
 31
0.0
  0
LINE
  5
E7
330
2
100
AcDbEntity
  8
ANCON-BOLT
100
AcDbLine
 10
6.0
 20
16.33309166250012
 30
0.0
 11
9.26661833249949
 21
16.33309166250012
 31
0.0
  0
CIRCLE
  5
E9
330
2
100
AcDbEntity
  8
ANCON-BOLT
100
AcDbCircle
 10
40.00000000000006
 20
40.0
 30
0.0
 40
12.76559680819934
  0
CIRCLE
  5
EA
330
2
100
AcDbEntity
  8
ANCON-BOLT
100
AcDbCircle
 10
40.00000000000006
 20
40.0
 30
0.0
 40
8.660254037844424
  0
LWPOLYLINE
  5
EB
330
2
100
AcDbEntity
  8
ANCON-BOLT
100
AcDbPolyline
 90
        6
 70
   129
 43
0.0
 10
35.00000000000005
 20
31.33974596215557
 10
45.00000000000006
 20
31.33974596215557
 10
50.00000000000006
 20
40.0
 10
45.00000000000006
 20
48.66025403784442
 10
35.00000000000005
 20
48.66025403784442
 10
30.00000000000005
 20
40.0
  0
ARC
  5
EC
330
2
100
AcDbEntity
  8
ANCON-BOLT
100
AcDbCircle
 10
40.00000000000006
 20
21.0
 30
0.0
 40
6.0
100
AcDbArc
 50
180.0
 51
0.0
  0
LINE
  5
ED
330
2
100
AcDbEntity
  8
ANCON-BOLT
100
AcDbLine
 10
34.00000000000005
 20
21.0
 30
0.0
 11
34.00000000000005
 21
28.73232668784237
 31
0.0
  0
LINE
  5
EE
330
2
100
AcDbEntity
  8
ANCON-BOLT
100
AcDbLine
 10
46.00000000000005
 20
21.0
 30
0.0
 11
46.00000000000005
 21
28.73232668784237
 31
0.0
  0
CIRCLE
  5
EF
330
2
100
AcDbEntity
  8
ANCON-BOLT
100
AcDbCircle
 10
40.00000000000006
 20
40.0
 30
0.0
 40
5.0
  0
LINE
  5
F0
330
2
100
AcDbEntity
  8
ANCON-BOLT
100
AcDbLine
 10
34.00000000000005
 20
51.26767331215763
 30
0.0
 11
34.00000000000005
 21
59.0
 31
0.0
  0
CIRCLE
  5
F1
330
2
100
AcDbEntity
  8
ANCON-BOLT
100
AcDbCircle
 10
40.00000000000006
 20
40.0
 30
0.0
 40
4.0
  0
LINE
  5
F2
330
2
100
AcDbEntity
  8
ANCON-BOLT
100
AcDbLine
 10
46.00000000000005
 20
51.26767331215763
 30
0.0
 11
46.00000000000005
 21
59.0
 31
0.0
  0
LINE
  5
F3
330
2
100
AcDbEntity
  8
ANCON-MASONRY
100
AcDbLine
 10
100.0
 20
50.0
 30
0.0
 11
100.0
 21
-15.0
 31
0.0
  0
LINE
  5
F4
330
2
100
AcDbEntity
  8
ANCON-WINDPOST
100
AcDbLine
 10
70.00000000000006
 20
90.0
 30
0.0
 11
0.0
 21
90.0
 31
0.0
  0
LINE
  5
F5
330
2
100
AcDbEntity
  8
ANCON-MASONRY
100
AcDbLine
 10
202.4999999999999
 20
125.0
 30
0.0
 11
202.4999999999999
 21
60.0
 31
0.0
  0
LINE
  5
F6
330
2
100
AcDbEntity
  8
ANCON-MASONRY
100
AcDbLine
 10
202.4999999999999
 20
50.0
 30
0.0
 11
202.4999999999999
 21
-15.0
 31
0.0
  0
TEXT
  5
F7
330
2
100
AcDbEntity
  8
ANCON-TEXT
100
AcDbText
 10
291.0821571869056
 20
-177.0879080265215
 30
0.0
 40
9.0
  1
long post and a wind load (UDL) of 2.9 kilonewtons.
  7
ROMANS
100
AcDbText
  0
TEXT
  5
F9
330
2
100
AcDbEntity
  8
ANCON-TEXT
100
AcDbText
 10
291.0821571869056
 20
-162.5164794550929
 30
0.0
 40
9.0
  1
Ancon Building Products will design a system to a 2.5 metre
  7
ROMANS
100
AcDbText
  0
TEXT
  5
FA
330
2
100
AcDbEntity
  8
ANCON-TEXT
100
AcDbText
 10
291.0821571869056
 20
-147.9450508836643
 30
0.0
 40
9.0
  1
by the height/wind load (UDL) ie. WP1/2.5/2.9
  7
ROMANS
100
AcDbText
  0
TEXT
  5
FB
330
2
100
AcDbEntity
  8
ANCON-TEXT
100
AcDbText
 10
291.0821571869056
 20
-133.3736223122357
 30
0.0
 40
9.0
  1
Ancon WP1 can be specified
  7
ROMANS
100
AcDbText
  0
TEXT
  5
FC
330
2
100
AcDbEntity
  8
ANCON-TEXT
100
AcDbText
 10
291.0821571869056
 20
-101.5571218805187
 30
0.0
 40
9.0
  1
Ancon windpost type WP1
  7
ROMANS
100
AcDbText
  0
TEXT
  5
161
330
2
100
AcDbEntity
  8
ANCON-TEXT
100
AcDbText
 10
-332.2063584824595
 20
-66.60047788781046
 30
0.0
 40
9.0
  1

  7
ROMANS
100
AcDbText
  0
TEXT
  5
162
330
2
100
AcDbEntity
  8
ANCON-TEXT
100
AcDbText
 10
-332.2063584824595
 20
-80.95758125809798
 30
0.0
 40
9.0
  1

  7
ROMANS
100
AcDbText
  0
TEXT
  5
163
330
2
100
AcDbEntity
  8
ANCON-TEXT
100
AcDbText
 10
-277.183766554178
 20
-51.86489384200669
 30
0.0
 40
9.0
  1

  7
ROMANS
100
AcDbText
  0
LINE
  5
166
330
2
100
AcDbEntity
  8
ANCON-CHANNEL
100
AcDbLine
 10
-83.50000000000006
 20
-5.396361048605136
 30
0.0
 11
-83.50000000000006
 21
6.117202969469417
 31
0.0
  0
LINE
  5
167
330
2
100
AcDbEntity
  8
ANCON-CHANNEL
100
AcDbLine
 10
-69.37668097754141
 20
-2.781152825996485
 30
0.0
 11
-69.37668097754141
 21
1.050011761189381
 31
0.0
  0
LINE
  5
168
330
2
100
AcDbEntity
  8
ANCON-CHANNEL
100
AcDbLine
 10
-70.37668097754141
 20
-2.360658496247623
 30
0.0
 11
-70.37668097754141
 21
-0.1647473386520062
 31
0.0
  0
LINE
  5
169
330
2
100
AcDbEntity
  8
ANCON-CHANNEL
100
AcDbLine
 10
-69.37668097754141
 20
-5.396361048605129
 30
0.0
 11
-69.37668097754141
 21
-3.435252819506132
 31
0.0
  0
LINE
  5
16A
330
2
100
AcDbEntity
  8
ANCON-CHANNEL
100
AcDbLine
 10
-68.37668097754136
 20
-5.396361048605136
 30
0.0
 11
-68.37668097754141
 21
-3.481975330584731
 31
0.0
  0
LINE
  5
16B
330
2
100
AcDbEntity
  8
ANCON-CHANNEL
100
AcDbLine
 10
-68.37668097754141
 20
-2.080328943081696
 30
0.0
 11
-68.37668097754141
 21
1.050011761189381
 31
0.0
  0
LINE
  5
16C
330
2
100
AcDbEntity
  8
ANCON-CHANNEL
100
AcDbLine
 10
-68.37668097754141
 20
1.84427790960845
 30
0.0
 11
-68.37668097754141
 21
3.853303157868964
 31
0.0
  0
LINE
  5
16D
330
2
100
AcDbEntity
  8
ANCON-CHANNEL
100
AcDbLine
 10
-69.37668097754141
 20
1.517227223690412
 30
0.0
 11
-69.37668097754141
 21
3.666417248533861
 31
0.0
  0
LINE
  5
16E
330
2
100
AcDbEntity
  8
ANCON-CHANNEL
100
AcDbLine
 10
-70.37668097754141
 20
0.442632900431903
 30
0.0
 11
-70.37668097754141
 21
2.171328595526489
 31
0.0
  0
LINE
  5
16F
330
2
100
AcDbEntity
  8
ANCON-CHANNEL
100
AcDbLine
 10
-70.37668097754141
 20
2.825429967362623
 30
0.0
 11
-70.37668097754141
 21
6.117202969469417
 31
0.0
  0
LINE
  5
170
330
2
100
AcDbEntity
  8
ANCON-CHANNEL
100
AcDbLine
 10
-59.33128721408213
 20
-2.781152825996485
 30
0.0
 11
-59.33128721408213
 21
1.050011761189381
 31
0.0
  0
LINE
  5
171
330
2
100
AcDbEntity
  8
ANCON-CHANNEL
100
AcDbLine
 10
-60.33128721408212
 20
-2.360658496247623
 30
0.0
 11
-60.33128721408212
 21
-0.1647473386520062
 31
0.0
  0
LINE
  5
172
330
2
100
AcDbEntity
  8
ANCON-CHANNEL
100
AcDbLine
 10
-58.33128721408207
 20
-5.396361048605136
 30
0.0
 11
-58.33128721408212
 21
-3.481975330584731
 31
0.0
  0
LINE
  5
173
330
2
100
AcDbEntity
  8
ANCON-CHANNEL
100
AcDbLine
 10
-59.33128721408213
 20
-5.396361048605129
 30
0.0
 11
-59.33128721408213
 21
-3.435252819506132
 31
0.0
  0
LINE
  5
174
330
2
100
AcDbEntity
  8
ANCON-CHANNEL
100
AcDbLine
 10
-59.33128721408213
 20
1.517227223690412
 30
0.0
 11
-59.33128721408213
 21
3.666417248533861
 31
0.0
  0
LINE
  5
175
330
2
100
AcDbEntity
  8
ANCON-CHANNEL
100
AcDbLine
 10
-58.33128721408212
 20
1.84427790960845
 30
0.0
 11
-58.33128721408212
 21
3.853303157868964
 31
0.0
  0
LINE
  5
176
330
2
100
AcDbEntity
  8
ANCON-CHANNEL
100
AcDbLine
 10
-58.33128721408212
 20
-2.080328943081696
 30
0.0
 11
-58.33128721408212
 21
1.050011761189381
 31
0.0
  0
LINE
  5
177
330
2
100
AcDbEntity
  8
ANCON-CHANNEL
100
AcDbLine
 10
-60.33128721408212
 20
0.442632900431903
 30
0.0
 11
-60.33128721408212
 21
2.171328595526489
 31
0.0
  0
LINE
  5
178
330
2
100
AcDbEntity
  8
ANCON-CHANNEL
100
AcDbLine
 10
-60.33128721408212
 20
2.825429967362623
 30
0.0
 11
-60.33128721408212
 21
6.367239753122106
 31
0.0
  0
LINE
  5
179
330
2
100
AcDbEntity
  8
ANCON-CHANNEL
100
AcDbLine
 10
-49.28589345062281
 20
-2.781152825996485
 30
0.0
 11
-49.28589345062281
 21
1.050011761189381
 31
0.0
  0
LINE
  5
17A
330
2
100
AcDbEntity
  8
ANCON-CHANNEL
100
AcDbLine
 10
-50.28589345062281
 20
-2.360658496247623
 30
0.0
 11
-50.28589345062281
 21
-0.1647473386520062
 31
0.0
  0
LINE
  5
17B
330
2
100
AcDbEntity
  8
ANCON-CHANNEL
100
AcDbLine
 10
-49.28589345062277
 20
-5.396361048605129
 30
0.0
 11
-49.28589345062281
 21
-3.435252819506132
 31
0.0
  0
LINE
  5
17C
330
2
100
AcDbEntity
  8
ANCON-CHANNEL
100
AcDbLine
 10
-48.28589345062278
 20
-5.396361048605136
 30
0.0
 11
-48.2858934506228
 21
-3.481975330584731
 31
0.0
  0
LINE
  5
17D
330
2
100
AcDbEntity
  8
ANCON-CHANNEL
100
AcDbLine
 10
-48.2858934506228
 20
-2.080328943081696
 30
0.0
 11
-48.2858934506228
 21
1.050011761189381
 31
0.0
  0
LINE
  5
17E
330
2
100
AcDbEntity
  8
ANCON-CHANNEL
100
AcDbLine
 10
-48.2858934506228
 20
1.84427790960845
 30
0.0
 11
-48.2858934506228
 21
3.853303157868964
 31
0.0
  0
LINE
  5
17F
330
2
100
AcDbEntity
  8
ANCON-CHANNEL
100
AcDbLine
 10
-49.28589345062281
 20
1.517227223690412
 30
0.0
 11
-49.28589345062281
 21
3.666417248533861
 31
0.0
  0
LINE
  5
180
330
2
100
AcDbEntity
  8
ANCON-CHANNEL
100
AcDbLine
 10
-50.28589345062281
 20
0.442632900431903
 30
0.0
 11
-50.28589345062281
 21
2.171328595526489
 31
0.0
  0
LINE
  5
181
330
2
100
AcDbEntity
  8
ANCON-CHANNEL
100
AcDbLine
 10
-50.28589345062281
 20
2.825429967362623
 30
0.0
 11
-50.28589345062281
 21
6.367239753122106
 31
0.0
  0
LINE
  5
182
330
2
100
AcDbEntity
  8
ANCON-CHANNEL
100
AcDbLine
 10
-30.19510592370426
 20
-2.360658496247623
 30
0.0
 11
-30.19510592370426
 21
-0.1647473386520062
 31
0.0
  0
LINE
  5
183
330
2
100
AcDbEntity
  8
ANCON-CHANNEL
100
AcDbLine
 10
-39.24049968716352
 20
-2.781152825996485
 30
0.0
 11
-39.24049968716352
 21
1.050011761189381
 31
0.0
  0
LINE
  5
184
330
2
100
AcDbEntity
  8
ANCON-CHANNEL
100
AcDbLine
 10
-40.24049968716352
 20
-2.360658496247623
 30
0.0
 11
-40.24049968716352
 21
-0.1647473386520062
 31
0.0
  0
LINE
  5
185
330
2
100
AcDbEntity
  8
ANCON-CHANNEL
100
AcDbLine
 10
-38.24049968716349
 20
-5.396361048605136
 30
0.0
 11
-38.24049968716352
 21
-3.481975330584731
 31
0.0
  0
LINE
  5
186
330
2
100
AcDbEntity
  8
ANCON-CHANNEL
100
AcDbLine
 10
-39.24049968716352
 20
-5.396361048605129
 30
0.0
 11
-39.24049968716352
 21
-3.435252819506132
 31
0.0
  0
LINE
  5
187
330
2
100
AcDbEntity
  8
ANCON-CHANNEL
100
AcDbLine
 10
-38.24049968716352
 20
1.84427790960845
 30
0.0
 11
-38.24049968716352
 21
3.853303157868964
 31
0.0
  0
LINE
  5
188
330
2
100
AcDbEntity
  8
ANCON-CHANNEL
100
AcDbLine
 10
-38.24049968716352
 20
-2.080328943081696
 30
0.0
 11
-38.24049968716352
 21
1.050011761189381
 31
0.0
  0
LINE
  5
189
330
2
100
AcDbEntity
  8
ANCON-CHANNEL
100
AcDbLine
 10
-39.24049968716352
 20
1.517227223690412
 30
0.0
 11
-39.24049968716352
 21
3.666417248533861
 31
0.0
  0
LINE
  5
18A
330
2
100
AcDbEntity
  8
ANCON-CHANNEL
100
AcDbLine
 10
-40.24049968716352
 20
0.442632900431903
 30
0.0
 11
-40.24049968716352
 21
2.171328595526489
 31
0.0
  0
LINE
  5
18B
330
2
100
AcDbEntity
  8
ANCON-CHANNEL
100
AcDbLine
 10
-40.24049968716352
 20
2.825429967362623
 30
0.0
 11
-40.24049968716352
 21
6.117202969469417
 31
0.0
  0
LINE
  5
18C
330
2
100
AcDbEntity
  8
ANCON-CHANNEL
100
AcDbLine
 10
-30.19510592370426
 20
0.442632900431903
 30
0.0
 11
-30.19510592370426
 21
2.171328595526489
 31
0.0
  0
LINE
  5
18D
330
2
100
AcDbEntity
  8
ANCON-CHANNEL
100
AcDbLine
 10
-30.19510592370426
 20
2.825429967362623
 30
0.0
 11
-30.19510592370426
 21
6.367239753122106
 31
0.0
  0
LINE
  5
18E
330
2
100
AcDbEntity
  8
ANCON-CHANNEL
100
AcDbLine
 10
-29.19510592370426
 20
-2.781152825996485
 30
0.0
 11
-29.19510592370426
 21
1.050011761189381
 31
0.0
  0
LINE
  5
18F
330
2
100
AcDbEntity
  8
ANCON-CHANNEL
100
AcDbLine
 10
-28.19510592370423
 20
-5.396361048605136
 30
0.0
 11
-28.19510592370426
 21
-3.481975330584731
 31
0.0
  0
LINE
  5
190
330
2
100
AcDbEntity
  8
ANCON-CHANNEL
100
AcDbLine
 10
-29.19510592370426
 20
-5.396361048605129
 30
0.0
 11
-29.19510592370426
 21
-3.435252819506132
 31
0.0
  0
LINE
  5
191
330
2
100
AcDbEntity
  8
ANCON-CHANNEL
100
AcDbLine
 10
-28.19510592370426
 20
-2.080328943081696
 30
0.0
 11
-28.19510592370426
 21
1.050011761189381
 31
0.0
  0
LINE
  5
192
330
2
100
AcDbEntity
  8
ANCON-CHANNEL
100
AcDbLine
 10
-28.19510592370426
 20
1.84427790960845
 30
0.0
 11
-28.19510592370426
 21
3.853303157868964
 31
0.0
  0
LINE
  5
193
330
2
100
AcDbEntity
  8
ANCON-CHANNEL
100
AcDbLine
 10
-29.19510592370426
 20
1.517227223690412
 30
0.0
 11
-29.19510592370426
 21
3.666417248533861
 31
0.0
  0
LINE
  5
194
330
2
100
AcDbEntity
  8
ANCON-CHANNEL
100
AcDbLine
 10
-16.50000000000005
 20
-5.396361048605136
 30
0.0
 11
-16.50000000000008
 21
6.117202969469403
 31
0.0
  0
LINE
  5
195
330
2
100
AcDbEntity
  8
ANCON-CHANNEL
100
AcDbLine
 10
-13.50000000000011
 20
-5.396361048605129
 30
0.0
 11
-13.50000000000008
 21
6.117202969469403
 31
0.0
  0
LINE
  5
196
330
2
100
AcDbEntity
  8
ANCON-CHANNEL
100
AcDbLine
 10
-19.00000000000005
 20
0.3604209604321511
 30
0.0
 11
-19.00000000000008
 21
6.117202969469431
 31
0.0
  0
LINE
  5
197
330
2
100
AcDbEntity
  8
ANCON-CHANNEL
100
AcDbLine
 10
-19.00000000000005
 20
0.3604209604321511
 30
0.0
 11
-19.00000000000008
 21
-5.396361048605136
 31
0.0
  0
LINE
  5
198
330
2
100
AcDbEntity
  8
ANCON-CHANNEL
100
AcDbLine
 10
-0.0000000000000568
 20
7.360420960432151
 30
0.0
 11
-0.0000000000000568
 21
7.860420960432151
 31
0.0
  0
LINE
  5
199
330
2
100
AcDbEntity
  8
ANCON-CHANNEL
100
AcDbLine
 10
-0.0000000000000568
 20
7.860420960432151
 30
0.0
 11
-0.0000000000000568
 21
7.360420960432151
 31
0.0
  0
LINE
  5
19A
330
2
100
AcDbEntity
  8
ANCON-CHANNEL
100
AcDbLine
 10
-0.0000000000000284
 20
-7.685997182150778
 30
0.0
 11
-0.0000000000000284
 21
-6.639579039567848
 31
0.0
  0
LINE
  5
19B
330
2
100
AcDbEntity
  8
ANCON-CHANNEL
100
AcDbLine
 10
-0.0000000000000568
 20
-7.139579039567848
 30
0.0
 11
-0.0000000000000284
 21
-7.685997182150785
 31
0.0
  0
LINE
  5
19C
330
2
100
AcDbEntity
  8
ANCON-CHANNEL
100
AcDbLine
 10
-17.36426339706847
 20
8.46306076151221
 30
0.0
 11
-6.05567411472316
 21
12.62938312869202
 31
0.0
  0
LINE
  5
19D
330
2
100
AcDbEntity
  8
ANCON-CHANNEL
100
AcDbLine
 10
-6.055674114723103
 20
-11.90854120782779
 30
0.0
 11
-17.36426339706847
 21
-7.742218840647915
 31
0.0
  0
LINE
  5
19E
330
2
100
AcDbEntity
  8
ANCON-CHANNEL
100
AcDbLine
 10
-16.50000000000005
 20
6.117202969469403
 30
0.0
 11
-5.191410717654775
 21
10.28352533664924
 31
0.0
  0
LINE
  5
19F
330
2
100
AcDbEntity
  8
ANCON-CHANNEL
100
AcDbLine
 10
-5.191410717654719
 20
-9.562683415785002
 30
0.0
 11
-16.50000000000005
 21
-5.396361048605143
 31
0.0
  0
LINE
  5
1A0
330
2
100
AcDbEntity
  8
ANCON-CHANNEL
100
AcDbLine
 10
-19.00000000000008
 20
6.117202969469417
 30
0.0
 11
-83.49999999999999
 21
6.117202969469403
 31
0.0
  0
LINE
  5
1A1
330
2
100
AcDbEntity
  8
ANCON-CHANNEL
100
AcDbLine
 10
-19.00000000000005
 20
-5.396361048605143
 30
0.0
 11
-83.50000000000006
 21
-5.396361048605143
 31
0.0
  0
LINE
  5
1A2
330
2
100
AcDbEntity
  8
ANCON-CHANNEL
100
AcDbLine
 10
-16.50000000000008
 20
6.117202969469403
 30
0.0
 11
-13.50000000000008
 21
6.117202969469403
 31
0.0
  0
LINE
  5
1A3
330
2
100
AcDbEntity
  8
ANCON-CHANNEL
100
AcDbLine
 10
-16.50000000000005
 20
-5.396361048605136
 30
0.0
 11
-13.50000000000005
 21
-5.396361048605129
 31
0.0
  0
ARC
  5
1A4
330
2
100
AcDbEntity
  8
ANCON-CHANNEL
100
AcDbCircle
 10
-16.50000000000008
 20
6.117202969469431
 30
0.0
 40
2.5
100
AcDbArc
 50
110.2248594311682
 51
180.0
  0
ARC
  5
1A5
330
2
100
AcDbEntity
  8
ANCON-CHANNEL
100
AcDbCircle
 10
-16.50000000000008
 20
-5.396361048605136
 30
0.0
 40
2.5
100
AcDbArc
 50
180.0
 51
249.7751405688317
  0
LINE
  5
1A6
330
2
100
AcDbEntity
  8
ANCON-CHANNEL
100
AcDbLine
 10
-2.5
 20
-7.685997182150785
 30
0.0
 11
-2.500000000000028
 21
-6.639579039567848
 31
0.0
  0
ARC
  5
1A7
330
2
100
AcDbEntity
  8
ANCON-CHANNEL
100
AcDbCircle
 10
-4.500000000000056
 20
8.40683910301503
 30
0.0
 40
2.0
100
AcDbArc
 50
0.0
 51
110.2248594311682
  0
ARC
  5
1A8
330
2
100
AcDbEntity
  8
ANCON-CHANNEL
100
AcDbCircle
 10
-4.5
 20
-7.685997182150785
 30
0.0
 40
2.0
100
AcDbArc
 50
249.7751405688317
 51
0.0
  0
ARC
  5
1A9
330
2
100
AcDbEntity
  8
ANCON-CHANNEL
100
AcDbCircle
 10
-4.500000000000056
 20
8.40683910301503
 30
0.0
 40
4.5
100
AcDbArc
 50
0.0
 51
110.2248594311682
  0
ARC
  5
1AA
330
2
100
AcDbEntity
  8
ANCON-CHANNEL
100
AcDbCircle
 10
-4.5
 20
-7.685997182150785
 30
0.0
 40
4.5
100
AcDbArc
 50
249.7751405688317
 51
0.0
  0
LINE
  5
1AB
330
2
100
AcDbEntity
  8
ANCON-CHANNEL
100
AcDbLine
 10
-2.500000000000085
 20
7.360420960432151
 30
0.0
 11
-2.500000000000056
 21
8.40683910301503
 31
0.0
  0
LINE
  5
1AC
330
2
100
AcDbEntity
  8
ANCON-CHANNEL
100
AcDbLine
 10
-0.0000000000000284
 20
7.360420960432151
 30
0.0
 11
-0.0000000000000284
 21
8.40683910301503
 31
0.0
  0
LINE
  5
1AD
330
2
100
AcDbEntity
  8
ANCON-CHANNEL
100
AcDbLine
 10
-0.0000000000000568
 20
-6.639579039567856
 30
0.0
 11
-0.0000000000000568
 21
-7.139579039567848
 31
0.0
  0
LINE
  5
1AE
330
2
100
AcDbEntity
  8
ANCON-CHANNEL
100
AcDbLine
 10
-2.500000000000085
 20
7.360420960432151
 30
0.0
 11
-0.0000000000000568
 21
7.360420960432151
 31
0.0
  0
LINE
  5
1AF
330
2
100
AcDbEntity
  8
ANCON-CHANNEL
100
AcDbLine
 10
-2.500000000000028
 20
-6.639579039567848
 30
0.0
 11
-0.0000000000000568
 21
-6.639579039567856
 31
0.0
  0
ENDSEC
  0
SECTION
  2
OBJECTS
  0
DICTIONARY
  5
1A
330
0
100
AcDbDictionary
281
     1
  3
ACAD_GROUP
350
18
  3
ACAD_LAYOUT
350
100
  3
ACAD_MLINESTYLE
350
19
  3
ACAD_PLOTSETTINGS
350
101
  3
ACAD_PLOTSTYLENAME
350
FE
  0
DICTIONARY
  5
18
102
{ACAD_REACTORS
330
1A
102
}
330
1A
100
AcDbDictionary
281
     1
  0
DICTIONARY
  5
100
102
{ACAD_REACTORS
330
1A
102
}
330
1A
100
AcDbDictionary
281
     1
  3
Layout1
350
103
  3
Model
350
102
  0
DICTIONARY
  5
19
102
{ACAD_REACTORS
330
1A
102
}
330
1A
100
AcDbDictionary
281
     1
  3
STANDARD
350
1C
  0
DICTIONARY
  5
101
102
{ACAD_REACTORS
330
1A
102
}
330
1A
100
AcDbDictionary
281
     1
  0
ACDBDICTIONARYWDFLT
  5
FE
102
{ACAD_REACTORS
330
1A
102
}
330
1A
100
AcDbDictionary
281
     1
  3
Normal
350
FF
100
AcDbDictionaryWithDefault
340
FF
  0
LAYOUT
  5
103
102
{ACAD_REACTORS
330
100
102
}
330
100
100
AcDbPlotSettings
  1

  2
Ancon 2
  4

  6

 40
0.0
 41
0.0
 42
0.0
 43
0.0
 44
0.0
 45
0.0
 46
0.0
 47
0.0
 48
0.0
 49
0.0
140
0.0
141
0.0
142
1.0
143
1.0
 70
   688
 72
     0
 73
     0
 74
     5
  7

 75
    16
147
1.0
148
0.0
149
0.0
100
AcDbLayout
  1
Layout1
 70
     1
 71
     1
 10
0.0
 20
0.0
 11
420.0
 21
297.0
 12
0.0
 22
0.0
 32
0.0
 14
1.000000000000000E+20
 24
1.000000000000000E+20
 34
1.000000000000000E+20
 15
-1.000000000000000E+20
 25
-1.000000000000000E+20
 35
-1.000000000000000E+20
146
0.0
 13
0.0
 23
0.0
 33
0.0
 16
1.0
 26
0.0
 36
0.0
 17
0.0
 27
1.0
 37
0.0
 76
     0
330
7
  0
LAYOUT
  5
102
102
{ACAD_REACTORS
330
100
102
}
330
100
100
AcDbPlotSettings
  1

  2
Ancon 2
  4

  6

 40
0.0
 41
0.0
 42
0.0
 43
0.0
 44
0.0
 45
0.0
 46
0.0
 47
0.0
 48
0.0
 49
0.0
140
0.0
141
0.0
142
1.0
143
1.0
 70
  1712
 72
     0
 73
     0
 74
     0
  7

 75
     0
147
1.0
148
0.0
149
0.0
100
AcDbLayout
  1
Model
 70
     1
 71
     0
 10
0.0
 20
0.0
 11
12.0
 21
9.0
 12
0.0
 22
0.0
 32
0.0
 14
0.0
 24
0.0
 34
0.0
 15
0.0
 25
0.0
 35
0.0
146
0.0
 13
0.0
 23
0.0
 33
0.0
 16
1.0
 26
0.0
 36
0.0
 17
0.0
 27
1.0
 37
0.0
 76
     0
330
2
  0
MLINESTYLE
  5
1C
102
{ACAD_REACTORS
330
19
102
}
330
19
100
AcDbMlineStyle
  2
STANDARD
 70
     0
  3

 62
   256
 51
90.0
 52
90.0
 71
     2
 49
0.5
 62
   256
  6
BYLAYER
 49
-0.5
 62
   256
  6
BYLAYER
  0
ACDBPLACEHOLDER
  5
FF
102
{ACAD_REACTORS
330
FE
102
}
330
FE
  0
ENDSEC
  0
EOF
