  0
SECTION
  2
HEADER
  9
$ACADVER
  1
AC1015
  9
$ACADMAINTVER
 70
    10
  9
$DWGCODEPAGE
  3
ANSI_1252
  9
$INSBASE
 10
0.0
 20
0.0
 30
0.0
  9
$EXTMIN
 10
3.74508774554792
 20
221.9730149639814
 30
0.0
  9
$EXTMAX
 10
81.13105264382644
 20
272.7526093492749
 30
0.0
  9
$LIMMIN
 10
0.0
 20
0.0
  9
$LIMMAX
 10
12.0
 20
9.0
  9
$ORTHOMODE
 70
     1
  9
$REGENMODE
 70
     1
  9
$FILLMODE
 70
     1
  9
$QTEXTMODE
 70
     0
  9
$MIRRTEXT
 70
     0
  9
$LTSCALE
 40
1.0
  9
$ATTMODE
 70
     1
  9
$TEXTSIZE
 40
40.0
  9
$TRACEWID
 40
0.05
  9
$TEXTSTYLE
  7
ROMANS
  9
$CLAYER
  8
DIMS
  9
$CELTYPE
  6
BYLAYER
  9
$CECOLOR
 62
   256
  9
$CELTSCALE
 40
1.0
  9
$DISPSILH
 70
     0
  9
$DIMSCALE
 40
1.0
  9
$DIMASZ
 40
2.0
  9
$DIMEXO
 40
4.5
  9
$DIMDLI
 40
0.0
  9
$DIMRND
 40
0.01
  9
$DIMDLE
 40
0.0
  9
$DIMEXE
 40
1.5
  9
$DIMTP
 40
0.0
  9
$DIMTM
 40
0.0
  9
$DIMTXT
 40
1.8
  9
$DIMCEN
 40
0.0
  9
$DIMTSZ
 40
0.0
  9
$DIMTOL
 70
     0
  9
$DIMLIM
 70
     0
  9
$DIMTIH
 70
     0
  9
$DIMTOH
 70
     0
  9
$DIMSE1
 70
     0
  9
$DIMSE2
 70
     0
  9
$DIMTAD
 70
     1
  9
$DIMZIN
 70
    12
  9
$DIMBLK
  1

  9
$DIMASO
 70
     1
  9
$DIMSHO
 70
     1
  9
$DIMPOST
  1

  9
$DIMAPOST
  1

  9
$DIMALT
 70
     0
  9
$DIMALTD
 70
     2
  9
$DIMALTF
 40
25.4
  9
$DIMLFAC
 40
1.0
  9
$DIMTOFL
 70
     0
  9
$DIMTVP
 40
0.0
  9
$DIMTIX
 70
     0
  9
$DIMSOXD
 70
     0
  9
$DIMSAH
 70
     0
  9
$DIMBLK1
  1

  9
$DIMBLK2
  1

  9
$DIMSTYLE
  2
1-1
  9
$DIMCLRD
 70
     0
  9
$DIMCLRE
 70
     0
  9
$DIMCLRT
 70
     0
  9
$DIMTFAC
 40
1.25
  9
$DIMGAP
 40
1.0
  9
$DIMJUST
 70
     0
  9
$DIMSD1
 70
     0
  9
$DIMSD2
 70
     0
  9
$DIMTOLJ
 70
     1
  9
$DIMTZIN
 70
    12
  9
$DIMALTZ
 70
    12
  9
$DIMALTTZ
 70
    12
  9
$DIMUPT
 70
     0
  9
$DIMDEC
 70
     4
  9
$DIMTDEC
 70
     4
  9
$DIMALTU
 70
     2
  9
$DIMALTTD
 70
     2
  9
$DIMTXSTY
  7
ROMANS
  9
$DIMAUNIT
 70
     0
  9
$DIMADEC
 70
     2
  9
$DIMALTRND
 40
0.0
  9
$DIMAZIN
 70
     0
  9
$DIMDSEP
 70
    46
  9
$DIMATFIT
 70
     3
  9
$DIMFRAC
 70
     0
  9
$DIMLDRBLK
  1

  9
$DIMLUNIT
 70
     2
  9
$DIMLWD
 70
    -2
  9
$DIMLWE
 70
    -2
  9
$DIMTMOVE
 70
     2
  9
$LUNITS
 70
     2
  9
$LUPREC
 70
     4
  9
$SKETCHINC
 40
0.1
  9
$FILLETRAD
 40
0.5
  9
$AUNITS
 70
     0
  9
$AUPREC
 70
     0
  9
$MENU
  1
acad
  9
$ELEVATION
 40
0.0
  9
$PELEVATION
 40
0.0
  9
$THICKNESS
 40
0.0
  9
$LIMCHECK
 70
     0
  9
$CHAMFERA
 40
0.5
  9
$CHAMFERB
 40
0.5
  9
$CHAMFERC
 40
0.0
  9
$CHAMFERD
 40
0.0
  9
$SKPOLY
 70
     0
  9
$TDCREATE
 40
2452202.646556944
  9
$TDUCREATE
 40
2452202.646556944
  9
$TDUPDATE
 40
2453060.721694618
  9
$TDUUPDATE
 40
2453060.721694618
  9
$TDINDWG
 40
1.3723312269
  9
$TDUSRTIMER
 40
1.3723312269
  9
$USRTIMER
 70
     1
  9
$ANGBASE
 50
0.0
  9
$ANGDIR
 70
     0
  9
$PDMODE
 70
     3
  9
$PDSIZE
 40
0.0
  9
$PLINEWID
 40
0.0
  9
$SPLFRAME
 70
     0
  9
$SPLINETYPE
 70
     6
  9
$SPLINESEGS
 70
     8
  9
$HANDSEED
  5
15906
  9
$SURFTAB1
 70
     6
  9
$SURFTAB2
 70
     6
  9
$SURFTYPE
 70
     6
  9
$SURFU
 70
     6
  9
$SURFV
 70
     6
  9
$UCSBASE
  2

  9
$UCSNAME
  2

  9
$UCSORG
 10
0.0
 20
0.0
 30
0.0
  9
$UCSXDIR
 10
1.0
 20
0.0
 30
0.0
  9
$UCSYDIR
 10
0.0
 20
1.0
 30
0.0
  9
$UCSORTHOREF
  2

  9
$UCSORTHOVIEW
 70
     0
  9
$UCSORGTOP
 10
0.0
 20
0.0
 30
0.0
  9
$UCSORGBOTTOM
 10
0.0
 20
0.0
 30
0.0
  9
$UCSORGLEFT
 10
0.0
 20
0.0
 30
0.0
  9
$UCSORGRIGHT
 10
0.0
 20
0.0
 30
0.0
  9
$UCSORGFRONT
 10
0.0
 20
0.0
 30
0.0
  9
$UCSORGBACK
 10
0.0
 20
0.0
 30
0.0
  9
$PUCSBASE
  2

  9
$PUCSNAME
  2

  9
$PUCSORG
 10
0.0
 20
0.0
 30
0.0
  9
$PUCSXDIR
 10
1.0
 20
0.0
 30
0.0
  9
$PUCSYDIR
 10
0.0
 20
1.0
 30
0.0
  9
$PUCSORTHOREF
  2

  9
$PUCSORTHOVIEW
 70
     0
  9
$PUCSORGTOP
 10
0.0
 20
0.0
 30
0.0
  9
$PUCSORGBOTTOM
 10
0.0
 20
0.0
 30
0.0
  9
$PUCSORGLEFT
 10
0.0
 20
0.0
 30
0.0
  9
$PUCSORGRIGHT
 10
0.0
 20
0.0
 30
0.0
  9
$PUCSORGFRONT
 10
0.0
 20
0.0
 30
0.0
  9
$PUCSORGBACK
 10
0.0
 20
0.0
 30
0.0
  9
$USERI1
 70
     0
  9
$USERI2
 70
     0
  9
$USERI3
 70
     0
  9
$USERI4
 70
     0
  9
$USERI5
 70
     0
  9
$USERR1
 40
0.0
  9
$USERR2
 40
0.0
  9
$USERR3
 40
0.0
  9
$USERR4
 40
0.0
  9
$USERR5
 40
0.0
  9
$WORLDVIEW
 70
     1
  9
$SHADEDGE
 70
     3
  9
$SHADEDIF
 70
    70
  9
$TILEMODE
 70
     1
  9
$MAXACTVP
 70
    16
  9
$PINSBASE
 10
0.0
 20
0.0
 30
0.0
  9
$PLIMCHECK
 70
     0
  9
$PEXTMIN
 10
1.129916750539944
 20
0.78675001625001
 30
0.0
  9
$PEXTMAX
 10
10.1692507548595
 20
7.080750146250085
 30
0.0
  9
$PLIMMIN
 10
-0.1979161059762549
 20
-0.1979166691697489
  9
$PLIMMAX
 10
11.49708424966165
 20
8.065416268476351
  9
$UNITMODE
 70
     0
  9
$VISRETAIN
 70
     0
  9
$PLINEGEN
 70
     0
  9
$PSLTSCALE
 70
     1
  9
$TREEDEPTH
 70
  3020
  9
$CMLSTYLE
  2
STANDARD
  9
$CMLJUST
 70
     0
  9
$CMLSCALE
 40
1.0
  9
$PROXYGRAPHICS
 70
     1
  9
$MEASUREMENT
 70
     0
  9
$CELWEIGHT
370
    -1
  9
$ENDCAPS
280
     0
  9
$JOINSTYLE
280
     0
  9
$LWDISPLAY
290
     0
  9
$INSUNITS
 70
     0
  9
$HYPERLINKBASE
  1

  9
$STYLESHEET
  1

  9
$XEDIT
290
     1
  9
$CEPSNTYPE
380
     0
  9
$PSTYLEMODE
290
     1
  9
$FINGERPRINTGUID
  2
{B88EE4EA-09A3-11D6-AAD2-00C04F189418}
  9
$VERSIONGUID
  2
{A934BA6A-0237-411B-BDD5-546CB643844A}
  9
$EXTNAMES
290
     1
  9
$PSVPSCALE
 40
0.0
  9
$OLESTARTUP
290
     0
  0
ENDSEC
  0
SECTION
  2
CLASSES
  0
CLASS
  1
DICTIONARYVAR
  2
AcDbDictionaryVar
  3
AutoCAD 2000
 90
        0
280
     0
281
     0
  0
CLASS
  1
LWPOLYLINE
  2
AcDbPolyline
  3
AutoCAD 2000
 90
    32768
280
     0
281
     1
  0
CLASS
  1
IDBUFFER
  2
AcDbIdBuffer
  3
AutoCAD 2000
 90
    32768
280
     0
281
     0
  0
CLASS
  1
ACDBDICTIONARYWDFLT
  2
AcDbDictionaryWithDefault
  3
AutoCAD 2000
 90
        0
280
     0
281
     0
  0
CLASS
  1
ACDBPLACEHOLDER
  2
AcDbPlaceHolder
  3
AutoCAD 2000
 90
        0
280
     0
281
     0
  0
CLASS
  1
LAYOUT
  2
AcDbLayout
  3
AutoCAD 2000
 90
        0
280
     0
281
     0
  0
CLASS
  1
LONG_TRANSACTION
  2
AcDbLongTransaction
  3
AutoCAD 2000
 90
    32768
280
     0
281
     0
  0
CLASS
  1
LWPOLYLINE
  2
AcDbPolyline
  3
AutoCAD 2000
 90
    32768
280
     0
281
     1
  0
CLASS
  1
HATCH
  2
AcDbHatch
  3
AutoCAD 2000
 90
    32768
280
     0
281
     1
  0
CLASS
  1
XRECORD
  2
AcDbXrecord
  3
AutoCAD 2000
 90
    32768
280
     0
281
     0
  0
ENDSEC
  0
SECTION
  2
TABLES
  0
TABLE
  2
VPORT
  5
DCE3
330
0
100
AcDbSymbolTable
 70
     2
  0
VPORT
  5
158E4
330
DCE3
100
AcDbSymbolTableRecord
100
AcDbViewportTableRecord
  2
*Active
 70
     0
 10
0.0
 20
0.0
 11
1.0
 21
1.0
 12
36.14216448662885
 22
251.4839777190535
 13
0.0
 23
0.0
 14
0.5
 24
0.5
 15
0.0
 25
0.0
 16
0.0
 26
0.0
 36
1.0
 17
0.0
 27
0.0
 37
0.0
 40
72.41985505123
 41
1.52338811630847
 42
50.0
 43
0.0
 44
0.0
 50
0.0
 51
0.0
 71
     8
 72
   100
 73
     1
 74
     1
 75
     0
 76
     0
 77
     0
 78
     0
281
     0
 65
     1
110
0.0
120
0.0
130
0.0
111
1.0
121
0.0
131
0.0
112
0.0
122
1.0
132
0.0
 79
     0
146
0.0
  0
ENDTAB
  0
TABLE
  2
LTYPE
  5
DCE0
330
0
100
AcDbSymbolTable
 70
    26
  0
LTYPE
  5
DCEC
330
DCE0
100
AcDbSymbolTableRecord
100
AcDbLinetypeTableRecord
  2
BYBLOCK
 70
     0
  3

 72
    65
 73
     0
 40
0.0
  0
LTYPE
  5
DCED
330
DCE0
100
AcDbSymbolTableRecord
100
AcDbLinetypeTableRecord
  2
BYLAYER
 70
     0
  3

 72
    65
 73
     0
 40
0.0
  0
LTYPE
  5
DCEE
330
DCE0
100
AcDbSymbolTableRecord
100
AcDbLinetypeTableRecord
  2
CONTINUOUS
 70
     0
  3
Solid line
 72
    65
 73
     0
 40
0.0
  0
LTYPE
  5
DD0F
330
DCE0
100
AcDbSymbolTableRecord
100
AcDbLinetypeTableRecord
  2
HIDDEN1_01
 70
     0
  3
__ __ __ __ __ __ __ __ __ __ __ __ __ __ __ __
 72
    65
 73
     2
 40
5.0
 49
3.0
 74
     0
 49
-2.0
 74
     0
  0
ENDTAB
  0
TABLE
  2
LAYER
  5
DCDD
330
0
100
AcDbSymbolTable
 70
    20
  0
LAYER
  5
DCE9
330
DCDD
100
AcDbSymbolTableRecord
100
AcDbLayerTableRecord
  2
0
 70
     0
 62
     7
  6
CONTINUOUS
370
    -3
390
EBBC
  0
LAYER
  5
DD29
330
DCDD
100
AcDbSymbolTableRecord
100
AcDbLayerTableRecord
  2
DIMS
 70
     0
 62
     2
  6
CONTINUOUS
370
    -3
390
EBBC
  0
LAYER
  5
DD33
330
DCDD
100
AcDbSymbolTableRecord
100
AcDbLayerTableRecord
  2
DEFPOINTS
 70
     0
 62
     7
  6
CONTINUOUS
290
     0
370
    -3
390
EBBC
  0
LAYER
  5
EA1A
330
DCDD
100
AcDbSymbolTableRecord
100
AcDbLayerTableRecord
  2
ASHADE
 70
     4
 62
     7
  6
CONTINUOUS
370
    -3
390
EBBC
  0
LAYER
  5
15885
330
DCDD
100
AcDbSymbolTableRecord
100
AcDbLayerTableRecord
  2
Ancontension
 70
     0
 62
     1
  6
CONTINUOUS
370
    -3
390
EBBC
  0
ENDTAB
  0
TABLE
  2
STYLE
  5
DCDE
330
0
100
AcDbSymbolTable
 70
     3
  0
STYLE
  5
DCEA
330
DCDE
100
AcDbSymbolTableRecord
100
AcDbTextStyleTableRecord
  2
STANDARD
 70
     0
 40
0.0
 41
1.0
 50
0.0
 71
     0
 42
0.2
  3
txt
  4

  0
STYLE
  5
DD02
330
DCDE
100
AcDbSymbolTableRecord
100
AcDbTextStyleTableRecord
  2
ROMANS
 70
     0
 40
0.0
 41
1.0
 50
0.0
 71
     0
 42
40.0
  3
romans
  4

  0
ENDTAB
  0
TABLE
  2
VIEW
  5
DCE1
330
0
100
AcDbSymbolTable
 70
     0
  0
ENDTAB
  0
TABLE
  2
UCS
  5
DCE2
330
0
100
AcDbSymbolTable
 70
     0
  0
ENDTAB
  0
TABLE
  2
APPID
  5
DCE4
330
0
100
AcDbSymbolTable
 70
     6
  0
APPID
  5
DCEB
330
DCE4
100
AcDbSymbolTableRecord
100
AcDbRegAppTableRecord
  2
ACAD
 70
     0
  0
APPID
  5
E64D
330
DCE4
100
AcDbSymbolTableRecord
100
AcDbRegAppTableRecord
  2
AVE_FINISH
 70
     0
  0
APPID
  5
EA18
330
DCE4
100
AcDbSymbolTableRecord
100
AcDbRegAppTableRecord
  2
AVE_RENDER
 70
     0
  0
APPID
  5
EA19
330
DCE4
100
AcDbSymbolTableRecord
100
AcDbRegAppTableRecord
  2
AVE_ENTITY_MATERIAL
 70
     0
  0
APPID
  5
EA26
330
DCE4
100
AcDbSymbolTableRecord
100
AcDbRegAppTableRecord
  2
AVE_MATERIAL
 70
     0
  0
APPID
  5
EA27
330
DCE4
100
AcDbSymbolTableRecord
100
AcDbRegAppTableRecord
  2
AVE_GLOBAL
 70
     0
  0
ENDTAB
  0
TABLE
  2
DIMSTYLE
  5
DCE5
330
0
100
AcDbSymbolTable
 70
     8
100
AcDbDimStyleTable
 71
     0
  0
DIMSTYLE
105
DD1C
330
DCE5
100
AcDbSymbolTableRecord
100
AcDbDimStyleTableRecord
  2
1-1
 70
     0
 41
2.0
 42
4.5
 43
0.0
 44
1.5
 45
0.01
 73
     0
 74
     0
 77
     1
 78
    12
140
1.8
141
0.0
146
1.25
147
1.0
179
     2
279
     2
284
    12
285
    12
286
    12
340
DD02
  0
ENDTAB
  0
TABLE
  2
BLOCK_RECORD
  5
DCDC
330
0
100
AcDbSymbolTable
 70
    23
  0
BLOCK_RECORD
  5
DCF2
102
{ACAD_XDICTIONARY
360
1586E
102
}
330
DCDC
100
AcDbSymbolTableRecord
100
AcDbBlockTableRecord
  2
*MODEL_SPACE
340
EBBF
  0
BLOCK_RECORD
  5
10777
102
{ACAD_XDICTIONARY
360
15847
102
}
330
DCDC
100
AcDbSymbolTableRecord
100
AcDbBlockTableRecord
  2
*Paper_Space
340
10778
  0
BLOCK_RECORD
  5
EA1B
330
DCDC
100
AcDbSymbolTableRecord
100
AcDbBlockTableRecord
  2
AVE_RENDER
340
0
102
{BLKREFS
331
EA1E
331
EA1F
331
EA20
331
EA21
331
EA22
331
EA23
331
EA24
331
EA25
102
}
  0
BLOCK_RECORD
  5
EA28
330
DCDC
100
AcDbSymbolTableRecord
100
AcDbBlockTableRecord
  2
AVE_GLOBAL
340
0
102
{BLKREFS
331
EA2B
102
}
  0
ENDTAB
  0
ENDSEC
  0
SECTION
  2
BLOCKS
  0
BLOCK
  5
DD38
330
DCF2
100
AcDbEntity
  8
0
100
AcDbBlockBegin
  2
*MODEL_SPACE
 70
     0
 10
0.0
 20
0.0
 30
0.0
  3
*MODEL_SPACE
  1

  0
ENDBLK
  5
DD39
330
DCF2
100
AcDbEntity
  8
0
100
AcDbBlockEnd
  0
BLOCK
  5
10779
330
10777
100
AcDbEntity
 67
     1
  8
0
100
AcDbBlockBegin
  2
*Paper_Space
 70
     0
 10
0.0
 20
0.0
 30
0.0
  3
*Paper_Space
  1

  0
ENDBLK
  5
1077A
330
10777
100
AcDbEntity
 67
     1
  8
0
100
AcDbBlockEnd
  0
BLOCK
  5
EA1C
330
EA1B
100
AcDbEntity
  8
ASHADE
100
AcDbBlockBegin
  2
AVE_RENDER
 70
     0
 10
0.0
 20
0.0
 30
0.0
  3
AVE_RENDER
  1
AVE_RENDER
  0
ENDBLK
  5
EA1D
330
EA1B
100
AcDbEntity
  8
0
100
AcDbBlockEnd
  0
BLOCK
  5
EA29
330
EA28
100
AcDbEntity
  8
ASHADE
100
AcDbBlockBegin
  2
AVE_GLOBAL
 70
     0
 10
0.0
 20
0.0
 30
0.0
  3
AVE_GLOBAL
  1
AVE_GLOBAL
  0
ENDBLK
  5
EA2A
330
EA28
100
AcDbEntity
  8
0
100
AcDbBlockEnd
  0
ENDSEC
  0
SECTION
  2
ENTITIES
  0
INSERT
  5
EA1E
330
DCF2
100
AcDbEntity
  8
ASHADE
 62
     1
100
AcDbBlockReference
  2
AVE_RENDER
 10
0.0
 20
0.0
 30
0.0
1001
AVE_RENDER
1002
{
1070
     7
1000
Pref
1070
    50
1070
    20
1070
     1
1070
     0
1000

1070
    10
1070
     1
1070
    10
1040
1.0
1070
     1
1040
0.3
1040
0.7
1040
0.0
1040
10.0
1010
-1.0
1020
-1.0
1030
-1.0
1040
0.3
1070
    49
1070
     0
1070
     0
1010
1.0
1020
1.0
1030
1.0
1040
45.0
1070
     1
1070
     0
1000
WCS
1040
0.0
1070
     0
1040
10.0
1002
}
  0
INSERT
  5
EA1F
330
DCF2
100
AcDbEntity
  8
ASHADE
 62
     3
100
AcDbBlockReference
  2
AVE_RENDER
 10
0.0
 20
0.0
 30
0.0
1001
AVE_RENDER
1002
{
1070
     0
1000
Full Opt
1070
     0
1070
     1
1070
     1
1070
     1
1070
     0
1070
     0
1070
     0
1070
     1
1070
     1
1040
0.0001
1040
0.0001
1002
}
  0
INSERT
  5
EA20
330
DCF2
100
AcDbEntity
  8
ASHADE
 62
     4
100
AcDbBlockReference
  2
AVE_RENDER
 10
0.0
 20
0.0
 30
0.0
1001
AVE_RENDER
1002
{
1070
     0
1000
Quick Opt
1070
     0
1070
     1
1070
     1
1070
     1
1070
     0
1070
     0
1070
     1
1002
}
  0
INSERT
  5
EA21
330
DCF2
100
AcDbEntity
  8
ASHADE
 62
     5
100
AcDbBlockReference
  2
AVE_RENDER
 10
0.0
 20
0.0
 30
0.0
1001
AVE_RENDER
1002
{
1070
     1
1000
Scanl Opt
1070
     2
1070
     0
1070
     2
1040
2.0
1040
4.0
1070
     0
1070
     1
1070
     0
1040
0.03
1002
}
  0
INSERT
  5
EA22
330
DCF2
100
AcDbEntity
  8
ASHADE
 62
     6
100
AcDbBlockReference
  2
AVE_RENDER
 10
0.0
 20
0.0
 30
0.0
1001
AVE_RENDER
1002
{
1070
     2
1000
Raytr Opt
1070
     2
1070
     0
1070
     2
1040
2.0
1040
4.0
1070
     0
1070
     1
1070
     1
1040
0.03
1070
     3
1040
0.03
1002
}
  0
INSERT
  5
EA23
330
DCF2
100
AcDbEntity
  8
ASHADE
 62
     7
100
AcDbBlockReference
  2
AVE_RENDER
 10
0.0
 20
0.0
 30
0.0
1001
AVE_RENDER
1002
{
1070
     0
1000
RFile Opt
1070
     1
1070
   640
1070
   480
1070
 10000
1070
     1
1070
     8
1070
     8
1070
     0
1070
     0
1070
     0
1070
     0
1070
     0
1070
     0
1070
     0
1002
}
  0
INSERT
  5
EA24
330
DCF2
100
AcDbEntity
  8
ASHADE
 62
     8
100
AcDbBlockReference
  2
AVE_RENDER
 10
0.0
 20
0.0
 30
0.0
1001
AVE_RENDER
1002
{
1070
     0
1000
Fog Opt
1070
     0
1070
     0
1040
0.0
1040
1.0
1040
0.0
1040
1.0
1010
0.5
1020
0.5
1030
0.5
1002
}
  0
INSERT
  5
EA25
330
DCF2
100
AcDbEntity
  8
ASHADE
 62
     9
100
AcDbBlockReference
  2
AVE_RENDER
 10
0.0
 20
0.0
 30
0.0
1001
AVE_RENDER
1002
{
1070
     0
1000
BG Opt
1070
     0
1070
     0
1010
1.0
1020
1.0
1030
1.0
1010
1.0
1020
0.0
1030
0.0
1010
0.0
1020
1.0
1030
0.0
1010
0.0
1020
0.0
1030
1.0
1040
0.5
1040
0.33
1040
0.0
1000

1070
     1
1000

1070
     1
1070
     1
1040
1.0
1040
1.0
1040
0.0
1040
0.0
1070
     0
1002
}
  0
INSERT
  5
EA2B
330
DCF2
100
AcDbEntity
  8
ASHADE
 62
     1
100
AcDbBlockReference
  2
AVE_GLOBAL
 10
0.0
 20
0.0
 30
0.0
1001
AVE_MATERIAL
1002
{
1000
*GLOBAL*
1000
1
1000
Global finish.
1002
{
1002
}
1002
{
1070
    63
1002
{
1002
{
1010
-1.0
1020
-1.0
1030
-1.0
1002
}
1040
0.1000000014901161
1000

1040
0.0
1002
{
1002
}
1040
0.0
1002
{
1002
}
1040
0.0
1002
}
1002
{
1002
{
1010
-1.0
1020
-1.0
1030
-1.0
1002
}
1040
0.6999999880790711
1000

1040
0.0
1002
{
1002
}
1040
0.0
1002
{
1002
}
1040
0.0
1002
}
1002
{
1002
{
1010
-1.0
1020
-1.0
1030
-1.0
1002
}
1040
0.2000000029802322
1000

1040
0.0
1002
{
1002
}
1040
0.0
1002
{
1002
}
1040
0.0
1002
}
1002
{
1070
     0
1002
{
1070
     1
1002
{
1040
1.0
1040
1.0
1000

1040
0.0
1002
{
1002
}
1040
0.0
1002
{
1002
}
1040
0.0
1002
}
1002
}
1040
1.0
1040
0.0
1040
0.0
1002
}
1002
{
1040
1.0
1040
1.0
1000

1040
0.0
1002
{
1002
}
1040
0.0
1002
{
1002
}
1040
0.0
1002
}
1002
{
1040
0.5
1040
1.0
1000

1040
0.0
1002
{
1002
}
1040
0.0
1002
{
1002
}
1040
0.0
1002
}
1002
{
1070
     0
1040
0.0
1002
{
1002
}
1040
1.0
1002
{
1002
}
1040
0.0
1002
}
1002
{
1040
0.0
1002
{
1002
{
1010
0.0
1020
0.0
1030
0.0
1002
}
1040
1.0
1000

1040
0.0
1002
{
1002
}
1040
0.0
1002
{
1002
}
1040
0.0
1002
}
1002
}
1002
{
1002
{
1070
     1
1002
{
1040
0.0
1040
1.0
1000

1040
0.0
1002
{
1002
}
1040
0.0
1002
{
1002
}
1040
0.0
1002
}
1002
}
1040
0.0
1002
{
1002
}
1010
1.0
1020
0.0
1030
0.0
1010
0.0
1020
1.0
1030
0.0
1010
0.0
1020
0.0
1030
1.0
1070
     0
1002
}
1002
{
1002
{
1040
1.0
1040
1.0
1002
{
1070
     1
1002
{
1040
1.0
1040
1.0
1000

1040
0.0
1002
{
1002
}
1040
0.0
1002
{
1002
}
1040
0.0
1002
}
1002
}
1002
}
1070
     0
1040
0.0
1002
{
1002
}
1002
}
1002
{
1002
}
1002
}
1002
{
1071
        3
1070
     3
1070
     0
1002
{
1070
     2
1070
     0
1070
     0
1040
0.0
1002
}
1070
     0
1070
     2
1002
{
1002
}
1002
}
1002
{
1040
8030.0
1040
190.3000030517578
1040
0.3050000071525574
1040
228.0
1040
545.0
1040
14.0
1040
17.39999961853027
1040
0.4560000002384186
1002
}
1002
}
  0
LINE
  5
10856
330
DCF2
100
AcDbEntity
  8
Ancontension
100
AcDbLine
 10
44.30618101379801
 20
241.6798744926086
 30
0.0
 11
16.29178843993389
 21
245.3006052257773
 31
0.0
  0
ELLIPSE
  5
10857
330
DCF2
100
AcDbEntity
  8
Ancontension
100
AcDbEllipse
 10
14.79209139655987
 20
233.6971183025247
 30
0.0
 11
0.0
 21
11.69999999999996
 31
0.0
210
0.0
220
0.0
230
1.0
 40
0.884223910558285
 41
6.283185307179585
 42
9.424777960769381
  0
LINE
  5
10859
330
DCF2
100
AcDbEntity
  8
Ancontension
  6
HIDDEN1_01
100
AcDbLine
 10
27.74209139655985
 20
223.5735301031098
 30
0.0
 11
27.74209139655985
 21
243.8207065019397
 31
0.0
  0
LINE
  5
1085B
330
DCF2
100
AcDbEntity
  8
Ancontension
100
AcDbLine
 10
44.30618101379801
 20
225.7143621124409
 30
0.0
 11
16.29178843993392
 21
222.0936313792722
 31
0.0
  0
LINE
  5
1085C
330
DCF2
100
AcDbEntity
  8
Ancontension
  6
HIDDEN1_01
100
AcDbLine
 10
44.74209139655985
 20
237.6971183025248
 30
0.0
 11
27.74209139655985
 21
237.6971183025248
 31
0.0
  0
LINE
  5
1085D
330
DCF2
100
AcDbEntity
  8
Ancontension
  6
HIDDEN1_01
100
AcDbLine
 10
44.74209139655981
 20
229.6971183025247
 30
0.0
 11
27.74209139655985
 21
229.6971183025247
 31
0.0
  0
ARC
  5
1085E
330
DCF2
100
AcDbEntity
  8
Ancontension
100
AcDbCircle
 10
14.79209139655987
 20
233.6971183025246
 30
0.0
 40
11.69999999999999
100
AcDbArc
 50
270.0
 51
277.3643898850778
  0
ARC
  5
1085F
330
DCF2
100
AcDbEntity
  8
Ancontension
100
AcDbCircle
 10
27.71255200198011
 20
224.4471183025246
 30
0.0
 40
0.5
100
AcDbArc
 50
270.0
 51
276.7620706383579
  0
CIRCLE
  5
10860
330
DCF2
100
AcDbEntity
  8
Ancontension
100
AcDbCircle
 10
14.79209139655987
 20
233.6971183025247
 30
0.0
 40
4.75
  0
CIRCLE
  5
10861
330
DCF2
100
AcDbEntity
  8
Ancontension
100
AcDbCircle
 10
14.79209139655987
 20
233.6971183025247
 30
0.0
 40
3.75
  0
LINE
  5
10862
330
DCF2
100
AcDbEntity
  8
Ancontension
100
AcDbLine
 10
12.79209139655987
 20
233.6971183025247
 30
0.0
 11
16.79209139655985
 21
233.6971183025247
 31
0.0
  0
LINE
  5
10863
330
DCF2
100
AcDbEntity
  8
Ancontension
100
AcDbLine
 10
14.79209139655987
 20
231.6971183025247
 30
0.0
 11
14.79209139655987
 21
235.6971183025246
 31
0.0
  0
LINE
  5
10866
330
DCF2
100
AcDbEntity
  8
Ancontension
100
AcDbLine
 10
44.74209139655989
 20
241.1839989830678
 30
0.0
 11
44.7420913965598
 21
226.2102376219817
 31
0.0
  0
ARC
  5
10867
330
DCF2
100
AcDbEntity
  8
Ancontension
100
AcDbCircle
 10
44.2420913965598
 20
226.2102376219817
 30
0.0
 40
0.5
100
AcDbArc
 50
277.3643898850778
 51
0.0
  0
ARC
  5
10868
330
DCF2
100
AcDbEntity
  8
Ancontension
100
AcDbCircle
 10
44.2420913965598
 20
241.1839989830678
 30
0.0
 40
0.5
100
AcDbArc
 50
0.0
 51
82.63561011492212
  0
LINE
  5
1086A
330
DCF2
100
AcDbEntity
  8
Ancontension
  6
HIDDEN1_01
100
AcDbLine
 10
53.74209139655985
 20
237.6971183025251
 30
0.0
 11
44.74209139655983
 21
237.6971183025251
 31
0.0
  0
LINE
  5
1086B
330
DCF2
100
AcDbEntity
  8
Ancontension
  6
HIDDEN1_01
100
AcDbLine
 10
53.74209139655985
 20
229.6971183025251
 30
0.0
 11
44.74209139655983
 21
229.6971183025251
 31
0.0
  0
LINE
  5
1086C
330
DCF2
100
AcDbEntity
  8
Ancontension
100
AcDbLine
 10
62.306181013798
 20
239.3534577043383
 30
0.0
 11
45.30618101379804
 21
241.5506291154826
 31
0.0
  0
LINE
  5
1086D
330
DCF2
100
AcDbEntity
  8
Ancontension
100
AcDbLine
 10
62.306181013798
 20
228.0407789007118
 30
0.0
 11
45.306181013798
 21
225.8436074895674
 31
0.0
  0
LINE
  5
1086E
330
DCF2
100
AcDbEntity
  8
Ancontension
100
AcDbLine
 10
44.74209139655989
 20
241.1839989830681
 30
0.0
 11
44.74209139655978
 21
226.2102376219818
 31
0.0
  0
ARC
  5
10870
330
DCF2
100
AcDbEntity
  8
Ancontension
100
AcDbCircle
 10
45.24209139655979
 20
226.3394829991081
 30
0.0
 40
0.5000000000000285
100
AcDbArc
 50
180.0000000000064
 51
277.364389885073
  0
ARC
  5
10871
330
DCF2
100
AcDbEntity
  8
Ancontension
100
AcDbCircle
 10
45.24209139655983
 20
241.054753605942
 30
0.0
 40
0.5
100
AcDbArc
 50
82.63561011492212
 51
180.0
  0
LINE
  5
10872
330
DCF2
100
AcDbEntity
  8
Ancontension
  6
HIDDEN1_01
100
AcDbLine
 10
53.74209139655985
 20
237.9471183025251
 30
0.0
 11
53.74209139655985
 21
229.4471183025251
 31
0.0
  0
LINE
  5
10873
330
DCF2
100
AcDbEntity
  8
Ancontension
100
AcDbLine
 10
62.7420913965598
 20
228.5366544102525
 30
0.0
 11
62.7420913965598
 21
238.8575821947976
 31
0.0
  0
LINE
  5
10874
330
DCF2
100
AcDbEntity
  8
Ancontension
  6
HIDDEN1_01
100
AcDbLine
 10
62.74209139655983
 20
229.4471183025251
 30
0.0
 11
53.74209139655985
 21
229.4471183025251
 31
0.0
  0
ELLIPSE
  5
10875
330
DCF2
100
AcDbEntity
  8
Ancontension
100
AcDbEllipse
 10
52.90998249541441
 20
228.8387611168221
 30
0.0
 11
-1.0
 21
0.0
 31
0.0
210
0.0
220
0.0
230
-1.0
 40
0.7071067811865534
 41
0.0
 42
6.283185307179585
  0
ARC
  5
10876
330
DCF2
100
AcDbEntity
  8
Ancontension
100
AcDbCircle
 10
62.24209139655979
 20
228.5366544102525
 30
0.0
 40
0.5
100
AcDbArc
 50
277.3643898850778
 51
0.0
  0
LINE
  5
10878
330
DCF2
100
AcDbEntity
  8
Ancontension
  6
HIDDEN1_01
100
AcDbLine
 10
62.74209139655983
 20
237.9471183025251
 30
0.0
 11
53.74209139655985
 21
237.9471183025251
 31
0.0
  0
ELLIPSE
  5
10879
330
DCF2
100
AcDbEntity
  8
Ancontension
100
AcDbEllipse
 10
52.90998249541441
 20
238.5554754882279
 30
0.0
 11
-1.0
 21
0.0
 31
0.0
210
0.0
220
0.0
230
1.0
 40
0.7071067811865534
 41
0.0
 42
6.283185307179585
  0
ARC
  5
1087C
330
DCF2
100
AcDbEntity
  8
Ancontension
100
AcDbCircle
 10
62.24209139655979
 20
238.8575821947976
 30
0.0
 40
0.5
100
AcDbArc
 50
0.0
 51
82.63561011492212
  0
LINE
  5
10884
330
DCF2
100
AcDbEntity
  8
Ancontension
100
AcDbLine
 10
44.30618101379798
 20
253.5613982276507
 30
0.0
 11
19.5420913965598
 21
250.3607541258852
 31
0.0
  0
LINE
  5
10885
330
DCF2
100
AcDbEntity
  8
Ancontension
100
AcDbLine
 10
44.30618101379801
 20
269.5269106078185
 30
0.0
 11
19.5420913965598
 21
272.727554709584
 31
0.0
  0
LINE
  5
10886
330
DCF2
100
AcDbEntity
  8
Ancontension
  6
HIDDEN1_01
100
AcDbLine
 10
44.74209139655977
 20
257.5441544177346
 30
0.0
 11
27.74209139655985
 21
257.5441544177346
 31
0.0
  0
LINE
  5
10887
330
DCF2
100
AcDbEntity
  8
Ancontension
  6
HIDDEN1_01
100
AcDbLine
 10
44.74209139655981
 20
265.5441544177346
 30
0.0
 11
27.74209139655985
 21
265.5441544177346
 31
0.0
  0
LINE
  5
1088A
330
DCF2
100
AcDbEntity
  8
Ancontension
100
AcDbLine
 10
14.79209139655987
 20
259.5441544177346
 30
0.0
 11
14.79209139655987
 21
263.5441544177346
 31
0.0
  0
LINE
  5
1088B
330
DCF2
100
AcDbEntity
  8
Ancontension
100
AcDbLine
 10
27.74209139655988
 20
257.6941544177345
 30
0.0
 11
27.74209139655985
 21
265.3941544177346
 31
0.0
  0
ARC
  5
1088C
330
DCF2
100
AcDbEntity
  8
Ancontension
100
AcDbCircle
 10
14.24034904710339
 20
239.9309157733518
 30
0.0
 40
11.69999999999999
100
AcDbArc
 50
63.05465383013324
 51
111.0280797998985
  0
LINE
  5
1088D
330
DCF2
100
AcDbEntity
  8
Ancontension
  6
HIDDEN1_01
100
AcDbLine
 10
10.04209139655986
 20
251.9815087487593
 30
0.0
 11
19.54209139655984
 21
251.9815087487593
 31
0.0
  0
LINE
  5
1088E
330
DCF2
100
AcDbEntity
  8
Ancontension
100
AcDbLine
 10
4.696671643027968
 20
257.1941544177345
 30
0.0
 11
27.24209139655988
 21
257.1941544177345
 31
0.0
  0
LINE
  5
1088F
330
DCF2
100
AcDbEntity
  8
Ancontension
100
AcDbLine
 10
12.79209139655987
 20
261.5441544177346
 30
0.0
 11
16.79209139655985
 21
261.5441544177346
 31
0.0
  0
ARC
  5
10890
330
DCF2
100
AcDbEntity
  8
Ancontension
100
AcDbCircle
 10
14.79209139655987
 20
261.5441544177346
 30
0.0
 40
11.69999999999999
100
AcDbArc
 50
205.6603690410918
 51
246.0472642381208
  0
LINE
  5
10891
330
DCF2
100
AcDbEntity
  8
Ancontension
100
AcDbLine
 10
11.04209139655983
 20
253.7441544177347
 30
0.0
 11
11.04209139655989
 21
251.9815087487593
 31
0.0
  0
LINE
  5
10892
330
DCF2
100
AcDbEntity
  8
Ancontension
100
AcDbLine
 10
10.04209139655986
 20
250.8517505720133
 30
0.0
 11
10.04209139655986
 21
251.9815087487593
 31
0.0
  0
ARC
  5
10893
330
DCF2
100
AcDbEntity
  8
Ancontension
100
AcDbCircle
 10
4.696671643027968
 20
256.6941544177347
 30
0.0
 40
0.5
100
AcDbArc
 50
90.0
 51
205.6603690410935
  0
LINE
  5
10894
330
DCF2
100
AcDbEntity
  8
Ancontension
100
AcDbLine
 10
11.04209139655983
 20
257.1941544177346
 30
0.0
 11
11.04209139655983
 21
255.2441544177346
 31
0.0
  0
LINE
  5
10895
330
DCF2
100
AcDbEntity
  8
Ancontension
100
AcDbLine
 10
18.54209139655984
 20
253.7441544177347
 30
0.0
 11
18.54209139655989
 21
251.9815087487593
 31
0.0
  0
LINE
  5
10896
330
DCF2
100
AcDbEntity
  8
Ancontension
100
AcDbLine
 10
19.54209139655984
 20
250.3607541258855
 30
0.0
 11
19.54209139655984
 21
251.9815087487593
 31
0.0
  0
ARC
  5
10897
330
DCF2
100
AcDbEntity
  8
Ancontension
100
AcDbCircle
 10
14.79209139655987
 20
233.6971183025246
 30
0.0
 40
11.69999999999999
100
AcDbArc
 50
82.63561011492212
 51
90.0
  0
ARC
  5
10898
330
DCF2
100
AcDbEntity
  8
Ancontension
100
AcDbCircle
 10
27.71255200198038
 20
242.9471183025246
 30
0.0
 40
0.5
100
AcDbArc
 50
83.23792936164203
 51
90.0
  0
LINE
  5
10899
330
DCF2
100
AcDbEntity
  8
Ancontension
100
AcDbLine
 10
18.54209139655987
 20
257.1941544177346
 30
0.0
 11
18.54209139655984
 21
255.2441544177346
 31
0.0
  0
ARC
  5
1089A
330
DCF2
100
AcDbEntity
  8
Ancontension
100
AcDbCircle
 10
27.24209139655988
 20
257.6941544177345
 30
0.0
 40
0.5
100
AcDbArc
 50
270.0
 51
0.0
  0
ARC
  5
1089B
330
DCF2
100
AcDbEntity
  8
Ancontension
100
AcDbCircle
 10
14.24034904710339
 20
283.1573930621174
 30
0.0
 40
11.69999999999999
100
AcDbArc
 50
248.9719202001014
 51
296.9453461698666
  0
LINE
  5
1089C
330
DCF2
100
AcDbEntity
  8
Ancontension
  6
HIDDEN1_01
100
AcDbLine
 10
10.04209139655986
 20
271.1068000867101
 30
0.0
 11
19.54209139655984
 21
271.1068000867101
 31
0.0
  0
LINE
  5
1089D
330
DCF2
100
AcDbEntity
  8
Ancontension
100
AcDbLine
 10
4.696671643027968
 20
265.8941544177346
 30
0.0
 11
27.24209139655985
 21
265.8941544177346
 31
0.0
  0
LINE
  5
1089E
330
DCF2
100
AcDbEntity
  8
Ancontension
100
AcDbLine
 10
10.04209139655986
 20
272.2365582634561
 30
0.0
 11
10.04209139655986
 21
271.1068000867101
 31
0.0
  0
ARC
  5
1089F
330
DCF2
100
AcDbEntity
  8
Ancontension
100
AcDbCircle
 10
14.79209139655987
 20
261.5441544177346
 30
0.0
 40
11.69999999999999
100
AcDbArc
 50
113.952735761879
 51
154.3396309589081
  0
ARC
  5
108A0
330
DCF2
100
AcDbEntity
  8
Ancontension
100
AcDbCircle
 10
4.696671643027968
 20
266.3941544177347
 30
0.0
 40
0.5
100
AcDbArc
 50
154.3396309589063
 51
270.0
  0
LINE
  5
108A1
330
DCF2
100
AcDbEntity
  8
Ancontension
100
AcDbLine
 10
11.04209139655985
 20
267.8441544177346
 30
0.0
 11
11.04209139655983
 21
265.8941544177346
 31
0.0
  0
LINE
  5
108A2
330
DCF2
100
AcDbEntity
  8
Ancontension
100
AcDbLine
 10
11.04209139655985
 20
271.1068000867101
 30
0.0
 11
11.04209139655985
 21
269.3441544177346
 31
0.0
  0
LINE
  5
108A3
330
DCF2
100
AcDbEntity
  8
Ancontension
100
AcDbLine
 10
19.54209139655984
 20
272.727554709584
 30
0.0
 11
19.54209139655984
 21
271.1068000867102
 31
0.0
  0
LINE
  5
108A4
330
DCF2
100
AcDbEntity
  8
Ancontension
100
AcDbLine
 10
18.54209139655987
 20
267.8441544177346
 30
0.0
 11
18.54209139655987
 21
265.8941544177346
 31
0.0
  0
LINE
  5
108A5
330
DCF2
100
AcDbEntity
  8
Ancontension
100
AcDbLine
 10
18.54209139655987
 20
271.1068000867102
 30
0.0
 11
18.54209139655987
 21
269.3441544177346
 31
0.0
  0
ARC
  5
108A6
330
DCF2
100
AcDbEntity
  8
Ancontension
100
AcDbCircle
 10
27.24209139655985
 20
265.3941544177346
 30
0.0
 40
0.5
100
AcDbArc
 50
0.0
 51
90.0
  0
LINE
  5
108A7
330
DCF2
100
AcDbEntity
  8
Ancontension
100
AcDbLine
 10
44.74209139655985
 20
269.0310350982778
 30
0.0
 11
44.74209139655977
 21
254.0572737371915
 31
0.0
  0
ARC
  5
108A8
330
DCF2
100
AcDbEntity
  8
Ancontension
100
AcDbCircle
 10
44.24209139655977
 20
254.0572737371915
 30
0.0
 40
0.5
100
AcDbArc
 50
277.3643898850778
 51
0.0
  0
ARC
  5
108A9
330
DCF2
100
AcDbEntity
  8
Ancontension
100
AcDbCircle
 10
44.2420913965598
 20
269.0310350982778
 30
0.0
 40
0.5
100
AcDbArc
 50
0.0
 51
82.63561011492212
  0
LINE
  5
108AA
330
DCF2
100
AcDbEntity
  8
Ancontension
  6
HIDDEN1_01
100
AcDbLine
 10
53.74209139655977
 20
265.7941544177346
 30
0.0
 11
53.74209139655977
 21
257.2941544177346
 31
0.0
  0
LINE
  5
108AB
330
DCF2
100
AcDbEntity
  8
Ancontension
100
AcDbLine
 10
44.74209139655983
 20
269.0310350982778
 30
0.0
 11
44.74209139655978
 21
254.0572737371915
 31
0.0
  0
LINE
  5
108AC
330
DCF2
100
AcDbEntity
  8
Ancontension
100
AcDbLine
 10
62.7420913965598
 20
256.3836905254621
 30
0.0
 11
62.7420913965598
 21
266.7046183100071
 31
0.0
  0
LINE
  5
108AD
330
DCF2
100
AcDbEntity
  8
Ancontension
100
AcDbLine
 10
62.306181013798
 20
255.8878150159213
 30
0.0
 11
45.30618101379788
 21
253.6906436047769
 31
0.0
  0
LINE
  5
108AE
330
DCF2
100
AcDbEntity
  8
Ancontension
  6
HIDDEN1_01
100
AcDbLine
 10
53.74209139655977
 20
257.5441544177346
 30
0.0
 11
44.74209139655978
 21
257.5441544177346
 31
0.0
  0
ARC
  5
108AF
330
DCF2
100
AcDbEntity
  8
Ancontension
100
AcDbCircle
 10
45.24209139655966
 20
254.1865191143176
 30
0.0
 40
0.5
100
AcDbArc
 50
179.9999999999934
 51
277.3643898850778
  0
LINE
  5
108B0
330
DCF2
100
AcDbEntity
  8
Ancontension
  6
HIDDEN1_01
100
AcDbLine
 10
62.7420913965598
 20
257.2941544177346
 30
0.0
 11
53.74209139655977
 21
257.2941544177346
 31
0.0
  0
ELLIPSE
  5
108B1
330
DCF2
100
AcDbEntity
  8
Ancontension
100
AcDbEllipse
 10
52.90998249541435
 20
256.6857972320315
 30
0.0
 11
-1.0
 21
0.0
 31
0.0
210
0.0
220
0.0
230
-1.0
 40
0.7071067811865534
 41
0.0
 42
6.283185307179585
  0
ARC
  5
108B2
330
DCF2
100
AcDbEntity
  8
Ancontension
100
AcDbCircle
 10
62.24209139655979
 20
256.3836905254621
 30
0.0
 40
0.5
100
AcDbArc
 50
277.3643898850778
 51
0.0
  0
LINE
  5
108B3
330
DCF2
100
AcDbEntity
  8
Ancontension
100
AcDbLine
 10
62.306181013798
 20
267.2004938195479
 30
0.0
 11
45.30618101379804
 21
269.3976652306923
 31
0.0
  0
LINE
  5
108B4
330
DCF2
100
AcDbEntity
  8
Ancontension
  6
HIDDEN1_01
100
AcDbLine
 10
53.74209139655977
 20
265.5441544177346
 30
0.0
 11
44.74209139655978
 21
265.5441544177346
 31
0.0
  0
ARC
  5
108B5
330
DCF2
100
AcDbEntity
  8
Ancontension
100
AcDbCircle
 10
45.24209139655983
 20
268.9017897211515
 30
0.0
 40
0.5
100
AcDbArc
 50
82.63561011492212
 51
180.0
  0
LINE
  5
108B6
330
DCF2
100
AcDbEntity
  8
Ancontension
  6
HIDDEN1_01
100
AcDbLine
 10
62.7420913965598
 20
265.7941544177346
 30
0.0
 11
53.74209139655977
 21
265.7941544177346
 31
0.0
  0
ELLIPSE
  5
108B7
330
DCF2
100
AcDbEntity
  8
Ancontension
100
AcDbEllipse
 10
52.90998249541435
 20
266.4025116034375
 30
0.0
 11
-1.0
 21
0.0
 31
0.0
210
0.0
220
0.0
230
1.0
 40
0.7071067811865534
 41
0.0
 42
6.283185307179585
  0
ARC
  5
108B8
330
DCF2
100
AcDbEntity
  8
Ancontension
100
AcDbCircle
 10
62.24209139655979
 20
266.7046183100071
 30
0.0
 40
0.5
100
AcDbArc
 50
0.0
 51
82.63561011492212
  0
TEXT
  5
10972
330
DCF2
100
AcDbEntity
  8
Ancontension
100
AcDbText
 10
73.03581454858835
 20
247.0561056858854
 30
0.0
 40
10.0
  1
8
  7
ROMANS
100
AcDbText
  0
VIEWPORT
  5
1077E
330
10777
100
AcDbEntity
 67
     1
  8
0
100
AcDbViewport
 10
5.649584071842704
 20
3.9337497996533
 30
0.0
 40
13.59960971915711
 41
8.742606248029574
 68
     1
 69
     1
 12
5.649584071842704
 22
3.9337497996533
 13
0.0
 23
0.0
 14
10.0
 24
10.0
 15
10.0
 25
10.0
 16
0.0
 26
0.0
 36
1.0
 17
0.0
 27
0.0
 37
0.0
 42
50.0
 43
0.0
 44
0.0
 45
8.742606248029574
 50
0.0
 51
0.0
 72
   100
 90
    32800
  1

281
     0
 71
     1
 74
     0
110
0.0
120
0.0
130
0.0
111
1.0
121
0.0
131
0.0
112
0.0
122
1.0
132
0.0
 79
     0
146
0.0
  0
VIEWPORT
  5
10780
330
10777
100
AcDbEntity
 67
     1
  8
DEFPOINTS
100
AcDbViewport
 10
5.649583752699723
 20
3.933750081250048
 30
0.0
 40
9.03933400431956
 41
6.294000130000076
 68
     2
 69
     2
 12
387.5355434982203
 22
270.7623806840798
 13
0.0
 23
0.0
 14
0.5
 24
0.5
 15
0.0
 25
0.0
 16
0.0
 26
0.0
 36
1.0
 17
0.0
 27
0.0
 37
0.0
 42
50.0
 43
0.0
 44
0.0
 45
90.26230401032616
 50
0.0
 51
0.0
 72
   100
 90
    32808
  1

281
     0
 71
     1
 74
     0
110
0.0
120
0.0
130
0.0
111
1.0
121
0.0
131
0.0
112
0.0
122
1.0
132
0.0
 79
     0
146
0.0
  0
ENDSEC
  0
SECTION
  2
OBJECTS
  0
DICTIONARY
  5
DCE7
330
0
100
AcDbDictionary
281
     1
  3
ACAD_GROUP
350
DCE8
  3
ACAD_LAYOUT
350
EBBD
  3
ACAD_MLINESTYLE
350
DCF5
  3
ACAD_PLOTSETTINGS
350
EBBE
  3
ACAD_PLOTSTYLENAME
350
EBBB
  3
AcadDim
350
EC1C
  3
ACDBHEADERROUNDTRIPXREC
350
158E5
  3
ACDBVARIABLEDICTIONARY
350
DD3A
  3
AVE_ACITABLE
350
EA5F
  0
DICTIONARY
  5
1586E
330
DCF2
100
AcDbDictionary
280
     1
281
     1
  3
ACAD_LAYOUTSELFREF
360
1586F
  0
DICTIONARY
  5
15847
330
10777
100
AcDbDictionary
280
     1
281
     1
  3
ACAD_LAYOUTSELFREF
360
1587C
  0
DICTIONARY
  5
DCE8
102
{ACAD_REACTORS
330
DCE7
102
}
330
DCE7
100
AcDbDictionary
281
     1
  0
DICTIONARY
  5
EBBD
102
{ACAD_REACTORS
330
DCE7
102
}
330
DCE7
100
AcDbDictionary
281
     1
  3
Layout1
350
10778
  3
Model
350
EBBF
  0
DICTIONARY
  5
DCF5
102
{ACAD_REACTORS
330
DCE7
102
}
330
DCE7
100
AcDbDictionary
281
     1
  3
STANDARD
350
DCF6
  0
DICTIONARY
  5
EBBE
102
{ACAD_REACTORS
330
DCE7
102
}
330
DCE7
100
AcDbDictionary
281
     1
  0
ACDBDICTIONARYWDFLT
  5
EBBB
102
{ACAD_REACTORS
330
DCE7
102
}
330
DCE7
100
AcDbDictionary
281
     1
  3
Normal
350
EBBC
100
AcDbDictionaryWithDefault
340
EBBC
  0
XRECORD
  5
EC1C
102
{ACAD_REACTORS
330
DCE7
102
}
330
DCE7
100
AcDbXrecord
280
     1
 90
   990106
  3

 60
     0
 61
     0
 62
     1
 63
     3
 64
     0
 65
     0
 66
     0
 67
     3
 68
     1
 69
     0
 70
     0
 71
     0
 72
     0
 40
0.0
170
     0
340
0
  0
DICTIONARY
  5
158E5
102
{ACAD_REACTORS
330
DCE7
102
}
330
DCE7
100
AcDbDictionary
281
     1
  3
CEPSNTYPE
350
158EF
  3
DIMSTYLEDATA
350
158F3
  3
FINGERPRINTGUID
350
158F0
  3
HYPERLINKBASE
350
158E8
  3
INSUNITS
350
158EE
  3
LAYOUTDICT
350
158EA
  3
LWETCUNION
350
158ED
  3
PLOTSETDICT
350
158EB
  3
PLOTSTYLNAMDICT
350
158EC
  3
PSVPSCALE
350
158F2
  3
PUCSBASE
350
158F6
  3
PUCSORGBACK
350
158FC
  3
PUCSORGBOTTOM
350
158F8
  3
PUCSORGFRONT
350
158FB
  3
PUCSORGLEFT
350
158F9
  3
PUCSORGRIGHT
350
158FA
  3
PUCSORGTOP
350
158F7
  3
PUCSORTHOREF
350
158F4
  3
PUCSORTHOVIEW
350
158F5
  3
STYLESHEET
350
158E9
  3
TSTACKALIGN
350
158E6
  3
TSTACKSIZE
350
158E7
  3
UCSBASE
350
158FF
  3
UCSORGBACK
350
15905
  3
UCSORGBOTTOM
350
15901
  3
UCSORGFRONT
350
15904
  3
UCSORGLEFT
350
15902
  3
UCSORGRIGHT
350
15903
  3
UCSORGTOP
350
15900
  3
UCSORTHOREF
350
158FD
  3
UCSORTHOVIEW
350
158FE
  3
VERSIONGUID
350
158F1
  0
DICTIONARY
  5
DD3A
102
{ACAD_REACTORS
330
DCE7
102
}
330
DCE7
100
AcDbDictionary
281
     1
  3
DIMADEC
350
DD3B
  3
DIMASSOC
350
EC17
  3
SORTENTS
350
E79F
  0
DICTIONARY
  5
EA5F
102
{ACAD_REACTORS
330
DCE7
102
}
330
DCE7
100
AcDbDictionary
281
     1
  0
XRECORD
  5
1586F
102
{ACAD_REACTORS
330
1586E
102
}
330
1586E
100
AcDbXrecord
280
     1
340
DCF2
  0
XRECORD
  5
1587C
102
{ACAD_REACTORS
330
15847
102
}
330
15847
100
AcDbXrecord
280
     1
340
10777
  0
LAYOUT
  5
10778
102
{ACAD_REACTORS
330
EBBD
102
}
330
EBBD
100
AcDbPlotSettings
  1

  2
\\Zeus\Xerox-Export
  4
A4
  6

 40
5.027083396911621
 41
5.027085304260253
 42
5.027069091796875
 43
5.027069091796875
 44
209.8886566162109
 45
297.0530090332031
 46
0.0
 47
0.0
 48
0.0
 49
0.0
140
0.0
141
0.0
142
1.0
143
1.0
 70
   688
 72
     0
 73
     1
 74
     5
  7

 75
    16
147
1.0
148
0.0
149
0.0
100
AcDbLayout
  1
Layout1
 70
     1
 71
     1
 10
-0.1979161059762549
 20
-0.1979166691697489
 11
11.49708424966165
 21
8.065416268476351
 12
0.0
 22
0.0
 32
0.0
 14
1.129916750539944
 24
0.78675001625001
 34
0.0
 15
10.1692507548595
 25
7.080750146250085
 35
0.0
146
0.0
 13
0.0
 23
0.0
 33
0.0
 16
1.0
 26
0.0
 36
0.0
 17
0.0
 27
1.0
 37
0.0
 76
     0
330
10777
331
1077E
  0
LAYOUT
  5
EBBF
102
{ACAD_REACTORS
330
EBBD
102
}
330
EBBD
100
AcDbPlotSettings
  1

  2
Ancon 1 A4
  4

  6

 40
0.0
 41
0.0
 42
0.0
 43
0.0
 44
0.0
 45
0.0
 46
0.0
 47
0.0
 48
0.0
 49
0.0
140
0.0
141
0.0
142
1.0
143
1.0
 70
  1712
 72
     0
 73
     0
 74
     0
  7

 75
     0
147
1.0
148
0.0
149
0.0
100
AcDbLayout
  1
Model
 70
     1
 71
     0
 10
0.0
 20
0.0
 11
12.0
 21
9.0
 12
0.0
 22
0.0
 32
0.0
 14
0.0
 24
0.0
 34
0.0
 15
0.0
 25
0.0
 35
0.0
146
0.0
 13
0.0
 23
0.0
 33
0.0
 16
1.0
 26
0.0
 36
0.0
 17
0.0
 27
1.0
 37
0.0
 76
     0
330
DCF2
  0
MLINESTYLE
  5
DCF6
102
{ACAD_REACTORS
330
DCF5
102
}
330
DCF5
100
AcDbMlineStyle
  2
STANDARD
 70
     0
  3

 62
   256
 51
90.0
 52
90.0
 71
     2
 49
0.5
 62
   256
  6
BYLAYER
 49
-0.5
 62
   256
  6
BYLAYER
  0
ACDBPLACEHOLDER
  5
EBBC
102
{ACAD_REACTORS
330
EBBB
102
}
330
EBBB
  0
XRECORD
  5
158EF
102
{ACAD_REACTORS
330
158E5
102
}
330
158E5
100
AcDbXrecord
280
     1
 90
        0
  0
XRECORD
  5
158F3
102
{ACAD_REACTORS
330
158E5
102
}
330
158E5
100
AcDbXrecord
280
     1
1000
DSTYLE
1002
{
1070
   179
 70
     2
1070
   279
 70
     2
1002
}
  0
XRECORD
  5
158F0
102
{ACAD_REACTORS
330
158E5
102
}
330
158E5
100
AcDbXrecord
280
     1
  1
{B88EE4EA-09A3-11D6-AAD2-00C04F189418}
  0
XRECORD
  5
158E8
102
{ACAD_REACTORS
330
158E5
102
}
330
158E5
100
AcDbXrecord
280
     1
  1

  0
XRECORD
  5
158EE
102
{ACAD_REACTORS
330
158E5
102
}
330
158E5
100
AcDbXrecord
280
     1
 90
        0
  0
XRECORD
  5
158EA
102
{ACAD_REACTORS
330
158E5
102
}
330
158E5
100
AcDbXrecord
280
     1
340
EBBD
  0
XRECORD
  5
158ED
102
{ACAD_REACTORS
330
158E5
102
}
330
158E5
100
AcDbXrecord
280
     1
 90
    10781
  0
XRECORD
  5
158EB
102
{ACAD_REACTORS
330
158E5
102
}
330
158E5
100
AcDbXrecord
280
     1
340
EBBE
  0
XRECORD
  5
158EC
102
{ACAD_REACTORS
330
158E5
102
}
330
158E5
100
AcDbXrecord
280
     1
340
EBBB
  0
XRECORD
  5
158F2
102
{ACAD_REACTORS
330
158E5
102
}
330
158E5
100
AcDbXrecord
280
     1
 40
0.0
  0
XRECORD
  5
158F6
102
{ACAD_REACTORS
330
158E5
102
}
330
158E5
100
AcDbXrecord
280
     1
340
0
  0
XRECORD
  5
158FC
102
{ACAD_REACTORS
330
158E5
102
}
330
158E5
100
AcDbXrecord
280
     1
 10
0.0
 20
0.0
 30
0.0
  0
XRECORD
  5
158F8
102
{ACAD_REACTORS
330
158E5
102
}
330
158E5
100
AcDbXrecord
280
     1
 10
0.0
 20
0.0
 30
0.0
  0
XRECORD
  5
158FB
102
{ACAD_REACTORS
330
158E5
102
}
330
158E5
100
AcDbXrecord
280
     1
 10
0.0
 20
0.0
 30
0.0
  0
XRECORD
  5
158F9
102
{ACAD_REACTORS
330
158E5
102
}
330
158E5
100
AcDbXrecord
280
     1
 10
0.0
 20
0.0
 30
0.0
  0
XRECORD
  5
158FA
102
{ACAD_REACTORS
330
158E5
102
}
330
158E5
100
AcDbXrecord
280
     1
 10
0.0
 20
0.0
 30
0.0
  0
XRECORD
  5
158F7
102
{ACAD_REACTORS
330
158E5
102
}
330
158E5
100
AcDbXrecord
280
     1
 10
0.0
 20
0.0
 30
0.0
  0
XRECORD
  5
158F4
102
{ACAD_REACTORS
330
158E5
102
}
330
158E5
100
AcDbXrecord
280
     1
340
0
  0
XRECORD
  5
158F5
102
{ACAD_REACTORS
330
158E5
102
}
330
158E5
100
AcDbXrecord
280
     1
 70
     0
  0
XRECORD
  5
158E9
102
{ACAD_REACTORS
330
158E5
102
}
330
158E5
100
AcDbXrecord
280
     1
  1

  0
XRECORD
  5
158E6
102
{ACAD_REACTORS
330
158E5
102
}
330
158E5
100
AcDbXrecord
280
     1
 90
        1
  0
XRECORD
  5
158E7
102
{ACAD_REACTORS
330
158E5
102
}
330
158E5
100
AcDbXrecord
280
     1
 90
       70
  0
XRECORD
  5
158FF
102
{ACAD_REACTORS
330
158E5
102
}
330
158E5
100
AcDbXrecord
280
     1
340
0
  0
XRECORD
  5
15905
102
{ACAD_REACTORS
330
158E5
102
}
330
158E5
100
AcDbXrecord
280
     1
 10
0.0
 20
0.0
 30
0.0
  0
XRECORD
  5
15901
102
{ACAD_REACTORS
330
158E5
102
}
330
158E5
100
AcDbXrecord
280
     1
 10
0.0
 20
0.0
 30
0.0
  0
XRECORD
  5
15904
102
{ACAD_REACTORS
330
158E5
102
}
330
158E5
100
AcDbXrecord
280
     1
 10
0.0
 20
0.0
 30
0.0
  0
XRECORD
  5
15902
102
{ACAD_REACTORS
330
158E5
102
}
330
158E5
100
AcDbXrecord
280
     1
 10
0.0
 20
0.0
 30
0.0
  0
XRECORD
  5
15903
102
{ACAD_REACTORS
330
158E5
102
}
330
158E5
100
AcDbXrecord
280
     1
 10
0.0
 20
0.0
 30
0.0
  0
XRECORD
  5
15900
102
{ACAD_REACTORS
330
158E5
102
}
330
158E5
100
AcDbXrecord
280
     1
 10
0.0
 20
0.0
 30
0.0
  0
XRECORD
  5
158FD
102
{ACAD_REACTORS
330
158E5
102
}
330
158E5
100
AcDbXrecord
280
     1
340
0
  0
XRECORD
  5
158FE
102
{ACAD_REACTORS
330
158E5
102
}
330
158E5
100
AcDbXrecord
280
     1
 70
     0
  0
XRECORD
  5
158F1
102
{ACAD_REACTORS
330
158E5
102
}
330
158E5
100
AcDbXrecord
280
     1
  1
{A934BA6A-0237-411B-BDD5-546CB643844A}
  0
DICTIONARYVAR
  5
DD3B
102
{ACAD_REACTORS
330
DD3A
102
}
330
DD3A
100
DictionaryVariables
280
     0
  1
0
  0
DICTIONARYVAR
  5
EC17
102
{ACAD_REACTORS
330
DD3A
102
}
330
DD3A
100
DictionaryVariables
280
     0
  1
1
  0
DICTIONARYVAR
  5
E79F
102
{ACAD_REACTORS
330
DD3A
102
}
330
DD3A
100
DictionaryVariables
280
     0
  1
96
  0
ENDSEC
  0
EOF
