  0
SECTION
  2
HEADER
  9
$ACADVER
  1
AC1018
  9
$ACADMAINTVER
 70
   104
  9
$DWGCODEPAGE
  3
ANSI_1252
  9
$LASTSAVEDBY
  1
pevans
  9
$INSBASE
 10
-127.8157996400928
 20
1903.957180086918
 30
0.0
  9
$EXTMIN
 10
-363.4092549051202
 20
1656.178690535695
 30
-0.0000000000000036
  9
$EXTMAX
 10
501.139012685688
 20
2054.813985090849
 30
0.0000000000000036
  9
$LIMMIN
 10
0.0
 20
0.0
  9
$LIMMAX
 10
420.0
 20
297.0
  9
$ORTHOMODE
 70
     1
  9
$REGENMODE
 70
     1
  9
$FILLMODE
 70
     1
  9
$QTEXTMODE
 70
     0
  9
$MIRRTEXT
 70
     1
  9
$LTSCALE
 40
1.0
  9
$ATTMODE
 70
     1
  9
$TEXTSIZE
 40
2.5
  9
$TRACEWID
 40
10.0
  9
$TEXTSTYLE
  7
ROMANS
  9
$CLAYER
  8
LOCKABLE DOWEL SLEEVE
  9
$CELTYPE
  6
ByLayer
  9
$CECOLOR
 62
   256
  9
$CELTSCALE
 40
1.0
  9
$DISPSILH
 70
     0
  9
$DIMSCALE
 40
0.0
  9
$DIMASZ
 40
3.0
  9
$DIMEXO
 40
4.5
  9
$DIMDLI
 40
10.0
  9
$DIMRND
 40
0.1
  9
$DIMDLE
 40
1.25
  9
$DIMEXE
 40
1.5
  9
$DIMTP
 40
0.0
  9
$DIMTM
 40
0.0
  9
$DIMTXT
 40
2.5
  9
$DIMCEN
 40
0.0
  9
$DIMTSZ
 40
0.0
  9
$DIMTOL
 70
     0
  9
$DIMLIM
 70
     0
  9
$DIMTIH
 70
     0
  9
$DIMTOH
 70
     0
  9
$DIMSE1
 70
     0
  9
$DIMSE2
 70
     0
  9
$DIMTAD
 70
     1
  9
$DIMZIN
 70
    12
  9
$DIMBLK
  1

  9
$DIMASO
 70
     1
  9
$DIMSHO
 70
     0
  9
$DIMPOST
  1

  9
$DIMAPOST
  1

  9
$DIMALT
 70
     0
  9
$DIMALTD
 70
     2
  9
$DIMALTF
 40
0.039
  9
$DIMLFAC
 40
1.0
  9
$DIMTOFL
 70
     0
  9
$DIMTVP
 40
1.8
  9
$DIMTIX
 70
     0
  9
$DIMSOXD
 70
     0
  9
$DIMSAH
 70
     0
  9
$DIMBLK1
  1

  9
$DIMBLK2
  1

  9
$DIMSTYLE
  2
1-1
  9
$DIMCLRD
 70
     0
  9
$DIMCLRE
 70
     0
  9
$DIMCLRT
 70
     0
  9
$DIMTFAC
 40
0.9
  9
$DIMGAP
 40
1.5
  9
$DIMJUST
 70
     0
  9
$DIMSD1
 70
     0
  9
$DIMSD2
 70
     0
  9
$DIMTOLJ
 70
     1
  9
$DIMTZIN
 70
    12
  9
$DIMALTZ
 70
    12
  9
$DIMALTTZ
 70
    12
  9
$DIMUPT
 70
     0
  9
$DIMDEC
 70
     2
  9
$DIMTDEC
 70
     2
  9
$DIMALTU
 70
     2
  9
$DIMALTTD
 70
     2
  9
$DIMTXSTY
  7
STANDARD
  9
$DIMAUNIT
 70
     0
  9
$DIMADEC
 70
     4
  9
$DIMALTRND
 40
0.0
  9
$DIMAZIN
 70
     0
  9
$DIMDSEP
 70
    46
  9
$DIMATFIT
 70
     3
  9
$DIMFRAC
 70
     0
  9
$DIMLDRBLK
  1

  9
$DIMLUNIT
 70
     2
  9
$DIMLWD
 70
    -2
  9
$DIMLWE
 70
    -2
  9
$DIMTMOVE
 70
     2
  9
$LUNITS
 70
     2
  9
$LUPREC
 70
     2
  9
$SKETCHINC
 40
1.0
  9
$FILLETRAD
 40
0.0
  9
$AUNITS
 70
     0
  9
$AUPREC
 70
     4
  9
$MENU
  1
ACAD
  9
$ELEVATION
 40
0.0
  9
$PELEVATION
 40
0.0
  9
$THICKNESS
 40
0.0
  9
$LIMCHECK
 70
     0
  9
$CHAMFERA
 40
0.0
  9
$CHAMFERB
 40
0.0
  9
$CHAMFERC
 40
0.0
  9
$CHAMFERD
 40
0.0
  9
$SKPOLY
 70
     0
  9
$TDCREATE
 40
2449576.350089583
  9
$TDUCREATE
 40
2449576.308422917
  9
$TDUPDATE
 40
2454999.590768588
  9
$TDUUPDATE
 40
2454999.549101922
  9
$TDINDWG
 40
0.4864219676
  9
$TDUSRTIMER
 40
0.4864219676
  9
$USRTIMER
 70
     1
  9
$ANGBASE
 50
0.0
  9
$ANGDIR
 70
     0
  9
$PDMODE
 70
     3
  9
$PDSIZE
 40
0.0
  9
$PLINEWID
 40
0.0
  9
$SPLFRAME
 70
     0
  9
$SPLINETYPE
 70
     6
  9
$SPLINESEGS
 70
     6
  9
$HANDSEED
  5
25C
  9
$SURFTAB1
 70
    12
  9
$SURFTAB2
 70
    12
  9
$SURFTYPE
 70
     6
  9
$SURFU
 70
    12
  9
$SURFV
 70
    12
  9
$UCSBASE
  2

  9
$UCSNAME
  2

  9
$UCSORG
 10
0.0
 20
0.0
 30
0.0
  9
$UCSXDIR
 10
1.0
 20
0.0
 30
0.0
  9
$UCSYDIR
 10
0.0
 20
1.0
 30
0.0
  9
$UCSORTHOREF
  2

  9
$UCSORTHOVIEW
 70
     0
  9
$UCSORGTOP
 10
0.0
 20
0.0
 30
0.0
  9
$UCSORGBOTTOM
 10
0.0
 20
0.0
 30
0.0
  9
$UCSORGLEFT
 10
0.0
 20
0.0
 30
0.0
  9
$UCSORGRIGHT
 10
0.0
 20
0.0
 30
0.0
  9
$UCSORGFRONT
 10
0.0
 20
0.0
 30
0.0
  9
$UCSORGBACK
 10
0.0
 20
0.0
 30
0.0
  9
$PUCSBASE
  2

  9
$PUCSNAME
  2

  9
$PUCSORG
 10
0.0
 20
0.0
 30
0.0
  9
$PUCSXDIR
 10
1.0
 20
0.0
 30
0.0
  9
$PUCSYDIR
 10
0.0
 20
1.0
 30
0.0
  9
$PUCSORTHOREF
  2

  9
$PUCSORTHOVIEW
 70
     0
  9
$PUCSORGTOP
 10
0.0
 20
0.0
 30
0.0
  9
$PUCSORGBOTTOM
 10
0.0
 20
0.0
 30
0.0
  9
$PUCSORGLEFT
 10
0.0
 20
0.0
 30
0.0
  9
$PUCSORGRIGHT
 10
0.0
 20
0.0
 30
0.0
  9
$PUCSORGFRONT
 10
0.0
 20
0.0
 30
0.0
  9
$PUCSORGBACK
 10
0.0
 20
0.0
 30
0.0
  9
$USERI1
 70
     0
  9
$USERI2
 70
     0
  9
$USERI3
 70
     0
  9
$USERI4
 70
     0
  9
$USERI5
 70
     0
  9
$USERR1
 40
0.0
  9
$USERR2
 40
0.0
  9
$USERR3
 40
0.0
  9
$USERR4
 40
0.0
  9
$USERR5
 40
0.0
  9
$WORLDVIEW
 70
     0
  9
$SHADEDGE
 70
     3
  9
$SHADEDIF
 70
    70
  9
$TILEMODE
 70
     1
  9
$MAXACTVP
 70
    16
  9
$PINSBASE
 10
0.0
 20
0.0
 30
0.0
  9
$PLIMCHECK
 70
     0
  9
$PEXTMIN
 10
0.0
 20
-0.2551426056372079
 30
0.0
  9
$PEXTMAX
 10
402.2
 20
276.04
 30
0.0
  9
$PLIMMIN
 10
-7.10953208159549
 20
-9.840350905307564
  9
$PLIMMAX
 10
411.0730395736306
 20
285.880426818014
  9
$UNITMODE
 70
     0
  9
$VISRETAIN
 70
     0
  9
$PLINEGEN
 70
     0
  9
$PSLTSCALE
 70
     0
  9
$TREEDEPTH
 70
  3020
  9
$CMLSTYLE
  2
Standard
  9
$CMLJUST
 70
     0
  9
$CMLSCALE
 40
1.0
  9
$PROXYGRAPHICS
 70
     1
  9
$MEASUREMENT
 70
     0
  9
$CELWEIGHT
370
    -1
  9
$ENDCAPS
280
     0
  9
$JOINSTYLE
280
     0
  9
$LWDISPLAY
290
     0
  9
$INSUNITS
 70
     0
  9
$HYPERLINKBASE
  1

  9
$STYLESHEET
  1

  9
$XEDIT
290
     1
  9
$CEPSNTYPE
380
     0
  9
$PSTYLEMODE
290
     1
  9
$FINGERPRINTGUID
  2
{46DF1431-3B26-44AA-9932-D3C0FD4353B7}
  9
$VERSIONGUID
  2
{92310682-0727-4003-9998-17976CC175CB}
  9
$EXTNAMES
290
     1
  9
$PSVPSCALE
 40
0.0
  9
$OLESTARTUP
290
     0
  9
$SORTENTS
280
   127
  9
$INDEXCTL
280
     0
  9
$HIDETEXT
280
     1
  9
$XCLIPFRAME
290
     0
  9
$HALOGAP
280
     0
  9
$OBSCOLOR
 70
   257
  9
$OBSLTYPE
280
     0
  9
$INTERSECTIONDISPLAY
280
     0
  9
$INTERSECTIONCOLOR
 70
   257
  9
$DIMASSOC
280
     2
  9
$PROJECTNAME
  1

  0
ENDSEC
  0
SECTION
  2
CLASSES
  0
CLASS
  1
ACDBDICTIONARYWDFLT
  2
AcDbDictionaryWithDefault
  3
ObjectDBX Classes
 90
        0
 91
        1
280
     0
281
     0
  0
CLASS
  1
DIMASSOC
  2
AcDbDimAssoc
  3
"AcDbDimAssoc|Product Desc:     AcDim ARX App For Dimension|Company:          Autodesk, Inc.|WEB Address:      www.autodesk.com"
 90
        0
 91
        0
280
     0
281
     0
  0
CLASS
  1
MATERIAL
  2
AcDbMaterial
  3
ObjectDBX Classes
 90
     1153
 91
        3
280
     0
281
     0
  0
CLASS
  1
VISUALSTYLE
  2
AcDbVisualStyle
  3
ObjectDBX Classes
 90
     4095
 91
       16
280
     0
281
     0
  0
CLASS
  1
TABLESTYLE
  2
AcDbTableStyle
  3
ObjectDBX Classes
 90
     4095
 91
        1
280
     0
281
     0
  0
CLASS
  1
SCALE
  2
AcDbScale
  3
ObjectDBX Classes
 90
     1153
 91
       33
280
     0
281
     0
  0
CLASS
  1
MLEADERSTYLE
  2
AcDbMLeaderStyle
  3
ACDB_MLEADERSTYLE_CLASS
 90
     4095
 91
        1
280
     0
281
     0
  0
CLASS
  1
CELLSTYLEMAP
  2
AcDbCellStyleMap
  3
ObjectDBX Classes
 90
     1152
 91
        2
280
     0
281
     0
  0
CLASS
  1
DICTIONARYVAR
  2
AcDbDictionaryVar
  3
ObjectDBX Classes
 90
        0
 91
        7
280
     0
281
     0
  0
CLASS
  1
SORTENTSTABLE
  2
AcDbSortentsTable
  3
ObjectDBX Classes
 90
        0
 91
        1
280
     0
281
     0
  0
CLASS
  1
MULTILEADER
  2
AcDbMLeader
  3
ACDB_MLEADER_CLASS
 90
     1025
 91
        0
280
     0
281
     1
  0
CLASS
  1
SOLID_BACKGROUND
  2
AcDbSolidBackground
  3
SCENEOE
 90
     4095
 91
        0
280
     0
281
     0
  0
CLASS
  1
NPOCOLLECTION
  2
AcDbImpNonPersistentObjectsCollection
  3
ObjectDBX Classes
 90
     1153
 91
        0
280
     0
281
     0
  0
ENDSEC
  0
SECTION
  2
TABLES
  0
TABLE
  2
VPORT
  5
2D
102
{ACAD_XDICTIONARY
360
31
102
}
330
0
100
AcDbSymbolTable
 70
     1
  0
VPORT
  5
2E
330
2D
100
AcDbSymbolTableRecord
100
AcDbViewportTableRecord
  2
*Active
 70
     0
 10
0.0
 20
0.0
 11
1.0
 21
1.0
 12
68.86487889028399
 22
1855.496337813271
 13
0.0
 23
0.0
 14
10.0
 24
10.0
 15
0.0
 25
0.0
 16
0.0
 26
0.0
 36
1.0
 17
0.0
 27
0.0
 37
0.0
 40
562.1196200688698
 41
1.545688545688545
 42
50.0
 43
0.0
 44
0.0
 50
0.0
 51
0.0
 71
     0
 72
  2000
 73
     1
 74
     2
 75
     0
 76
     0
 77
     0
 78
     1
281
     0
 65
     1
110
0.0
120
0.0
130
0.0
111
1.0
121
0.0
131
0.0
112
0.0
122
1.0
132
0.0
 79
     0
146
0.0
  0
ENDTAB
  0
TABLE
  2
LTYPE
  5
28
330
0
100
AcDbSymbolTable
 70
     5
  0
LTYPE
  5
29
330
28
100
AcDbSymbolTableRecord
100
AcDbLinetypeTableRecord
  2
ByBlock
 70
     0
  3

 72
    65
 73
     0
 40
0.0
  0
LTYPE
  5
2A
330
28
100
AcDbSymbolTableRecord
100
AcDbLinetypeTableRecord
  2
ByLayer
 70
     0
  3

 72
    65
 73
     0
 40
0.0
  0
LTYPE
  5
15
330
28
100
AcDbSymbolTableRecord
100
AcDbLinetypeTableRecord
  2
CONTINUOUS
 70
     0
  3
Solid line
 72
    65
 73
     0
 40
0.0
  0
LTYPE
  5
A8
330
28
100
AcDbSymbolTableRecord
100
AcDbLinetypeTableRecord
  2
CENTER
 70
     0
  3
____ _ ____ _ ____ _ ____ _ ____ _ ____ _ ____ 
 72
    65
 73
     4
 40
50.8
 49
31.75
 74
     0
 49
-6.349999999999999
 74
     0
 49
6.349999999999999
 74
     0
 49
-6.349999999999999
 74
     0
  0
LTYPE
  5
10C
330
28
100
AcDbSymbolTableRecord
100
AcDbLinetypeTableRecord
  2
CENTER2
 70
     0
  3
___ _ ___ _ ___ _ ___ _ ___ _ ___ _ ___ _ ___ _
 72
    65
 73
     4
 40
28.575
 49
19.05
 74
     0
 49
-3.174999999999999
 74
     0
 49
3.174999999999999
 74
     0
 49
-3.174999999999999
 74
     0
  0
LTYPE
  5
124
330
28
100
AcDbSymbolTableRecord
100
AcDbLinetypeTableRecord
  2
HIDDEN2
 70
     0
  3
_ _ _ _ _ _ _ _ _ _ _ _ _ _ _ _ _ _ _ _ _ _ _ _
 72
    65
 73
     2
 40
4.762499999999999
 49
3.174999999999999
 74
     0
 49
-1.587499999999999
 74
     0
  0
LTYPE
  5
AA
330
28
100
AcDbSymbolTableRecord
100
AcDbLinetypeTableRecord
  2
HIDDEN1_01
 70
     0
  3
__ __ __ __ __ __ __ __ __ __ __ __ __ __ __ __
 72
    65
 73
     2
 40
5.0
 49
3.0
 74
     0
 49
-2.0
 74
     0
  0
ENDTAB
  0
TABLE
  2
LAYER
  5
1F
102
{ACAD_XDICTIONARY
360
20
102
}
330
0
100
AcDbSymbolTable
 70
     8
  0
LAYER
  5
6
102
{ACAD_XDICTIONARY
360
7
102
}
330
1F
100
AcDbSymbolTableRecord
100
AcDbLayerTableRecord
  2
0
 70
     0
 62
     7
  6
CONTINUOUS
370
    -3
390
9
  0
LAYER
  5
A5
102
{ACAD_XDICTIONARY
360
A6
102
}
330
1F
100
AcDbSymbolTableRecord
100
AcDbLayerTableRecord
  2
GRID
 70
     0
 62
     1
  6
CONTINUOUS
370
    -3
390
9
  0
LAYER
  5
198
102
{ACAD_XDICTIONARY
360
199
102
}
330
1F
100
AcDbSymbolTableRecord
100
AcDbLayerTableRecord
  2
HATCH
 70
     0
 62
     1
  6
CONTINUOUS
370
    -3
390
9
  0
LAYER
  5
19E
330
1F
100
AcDbSymbolTableRecord
100
AcDbLayerTableRecord
  2
SPECP
 70
     0
 62
     6
  6
CONTINUOUS
370
    -3
390
9
  0
LAYER
  5
12F
330
1F
100
AcDbSymbolTableRecord
100
AcDbLayerTableRecord
  2
LOCKABLE DOWEL FORMER
 70
     0
 62
     1
  6
CONTINUOUS
370
    -3
390
9
1001
AcAecLayerStandard
1000

1000

  0
LAYER
  5
4C
330
1F
100
AcDbSymbolTableRecord
100
AcDbLayerTableRecord
  2
LOCKABLE DOWEL SLEEVE
 70
     0
 62
     1
  6
CONTINUOUS
370
    -3
390
9
1001
AcAecLayerStandard
1000

1000

  0
LAYER
  5
184
330
1F
100
AcDbSymbolTableRecord
100
AcDbLayerTableRecord
  2
LOCKABLE DOWEL LOCKING PLATE
 70
     0
 62
     1
  6
CONTINUOUS
370
    -3
390
9
1001
AcAecLayerStandard
1000

1000

  0
LAYER
  5
76
330
1F
100
AcDbSymbolTableRecord
100
AcDbLayerTableRecord
  2
LOCKABLE DOWEL DOWEL COMPONENT
 70
     0
 62
     1
  6
CONTINUOUS
370
    -3
390
9
1001
AcAecLayerStandard
1000

1000

  0
ENDTAB
  0
TABLE
  2
STYLE
  5
25
330
0
100
AcDbSymbolTable
 70
     2
  0
STYLE
  5
26
330
25
100
AcDbSymbolTableRecord
100
AcDbTextStyleTableRecord
  2
STANDARD
 70
     0
 40
0.0
 41
1.0
 50
0.0
 71
     0
 42
5.0
  3
simplex
  4

  0
STYLE
  5
4E
330
25
100
AcDbSymbolTableRecord
100
AcDbTextStyleTableRecord
  2
ROMANS
 70
     0
 40
0.0
 41
1.0
 50
0.0
 71
     0
 42
2.5
  3
romans
  4

  0
ENDTAB
  0
TABLE
  2
VIEW
  5
2B
330
0
100
AcDbSymbolTable
 70
     0
  0
ENDTAB
  0
TABLE
  2
UCS
  5
2C
330
0
100
AcDbSymbolTable
 70
     0
  0
ENDTAB
  0
TABLE
  2
APPID
  5
32
330
0
100
AcDbSymbolTable
 70
     3
  0
APPID
  5
24
330
32
100
AcDbSymbolTableRecord
100
AcDbRegAppTableRecord
  2
ACAD
 70
     0
  0
APPID
  5
4D
330
32
100
AcDbSymbolTableRecord
100
AcDbRegAppTableRecord
  2
AcAecLayerStandard
 70
     0
  0
APPID
  5
252
330
32
100
AcDbSymbolTableRecord
100
AcDbRegAppTableRecord
  2
ACAD_MLEADERVER
 70
     0
  0
ENDTAB
  0
TABLE
  2
DIMSTYLE
  5
33
330
0
100
AcDbSymbolTable
 70
     1
100
AcDbDimStyleTable
 71
     1
340
34
  0
DIMSTYLE
105
34
330
33
100
AcDbSymbolTableRecord
100
AcDbDimStyleTableRecord
  2
1-1
 70
     0
 40
0.0
 41
3.0
 42
4.5
 43
10.0
 44
1.5
 45
0.1
 46
1.25
 73
     0
 74
     0
 77
     1
 78
    12
140
2.5
141
0.0
143
0.039
145
1.8
146
0.9
147
1.5
271
     2
272
     2
279
     2
284
    12
285
    12
286
    12
340
26
  0
ENDTAB
  0
TABLE
  2
BLOCK_RECORD
  5
1
330
0
100
AcDbSymbolTable
 70
     1
  0
BLOCK_RECORD
  5
2
102
{ACAD_XDICTIONARY
360
3
102
}
330
1
100
AcDbSymbolTableRecord
100
AcDbBlockTableRecord
  2
*Model_Space
340
17
  0
BLOCK_RECORD
  5
19
330
1
100
AcDbSymbolTableRecord
100
AcDbBlockTableRecord
  2
*Paper_Space
340
1C
  0
BLOCK_RECORD
  5
140
330
1
100
AcDbSymbolTableRecord
100
AcDbBlockTableRecord
  2
*X0
340
0
102
{BLKREFS
331
13F
102
}
  0
ENDTAB
  0
ENDSEC
  0
SECTION
  2
BLOCKS
  0
BLOCK
  5
5
330
2
100
AcDbEntity
  8
0
100
AcDbBlockBegin
  2
*Model_Space
 70
     0
 10
0.0
 20
0.0
 30
0.0
  3
*Model_Space
  1

  0
ENDBLK
  5
16
330
2
100
AcDbEntity
  8
0
100
AcDbBlockEnd
  0
BLOCK
  5
1A
330
19
100
AcDbEntity
 67
     1
  8
0
100
AcDbBlockBegin
  2
*Paper_Space
 70
     0
 10
0.0
 20
0.0
 30
0.0
  3
*Paper_Space
  1

  0
ENDBLK
  5
1B
330
19
100
AcDbEntity
 67
     1
  8
0
100
AcDbBlockEnd
  0
BLOCK
  5
141
330
140
100
AcDbEntity
  8
0
100
AcDbBlockBegin
  2
*X0
 70
     1
 10
0.0
 20
0.0
 30
0.0
  3
*X0
  1

  0
LINE
  5
142
330
140
100
AcDbEntity
  8
0
 62
     0
100
AcDbLine
 10
195.5814268087933
 20
147.6268591222841
 30
0.0
 11
195.8430013671036
 21
147.8884336805943
 31
0.0
  0
LINE
  5
143
330
140
100
AcDbEntity
  8
0
 62
     0
100
AcDbLine
 10
195.8987187564175
 20
147.9441510699082
 30
0.0
 11
196.1604174924433
 21
148.205849805934
 31
0.0
  0
LINE
  5
144
330
140
100
AcDbEntity
  8
0
 62
     0
100
AcDbLine
 10
195.8430013671036
 20
147.8884336805943
 30
0.0
 11
195.8987187564175
 21
147.9441510699082
 31
0.0
  0
LINE
  5
145
330
140
100
AcDbEntity
  8
0
 62
     0
100
AcDbLine
 10
195.5444267977305
 20
147.6796616724319
 30
0.0
 11
195.7524673756712
 21
147.8877022503726
 31
0.0
  0
LINE
  5
146
330
140
100
AcDbEntity
  8
0
 62
     0
100
AcDbLine
 10
195.8987187564175
 20
148.0339536311189
 30
0.0
 11
196.1076149422955
 21
148.2428498169969
 31
0.0
  0
LINE
  5
147
330
140
100
AcDbEntity
  8
0
 62
     0
100
AcDbLine
 10
195.7524673756712
 20
147.8877022503726
 30
0.0
 11
195.8987187564175
 21
148.0339536311189
 31
0.0
  0
LINE
  5
148
330
140
100
AcDbEntity
  8
0
 62
     0
100
AcDbLine
 10
195.5151296645027
 20
147.7401671004149
 30
0.0
 11
195.6612648444809
 21
147.886302280393
 31
0.0
  0
LINE
  5
149
330
140
100
AcDbEntity
  8
0
 62
     0
100
AcDbLine
 10
195.8987187564175
 20
148.1237561923296
 30
0.0
 11
196.0471095143125
 21
148.2721469502246
 31
0.0
  0
LINE
  5
14A
330
140
100
AcDbEntity
  8
0
 62
     0
100
AcDbLine
 10
195.6612648444809
 20
147.886302280393
 30
0.0
 11
195.8987187564175
 21
148.1237561923296
 31
0.0
  0
LINE
  5
14B
330
140
100
AcDbEntity
  8
0
 62
     0
100
AcDbLine
 10
195.4950258363717
 20
147.8098658334945
 30
0.0
 11
195.5693785080192
 21
147.8842185051419
 31
0.0
  0
LINE
  5
14C
330
140
100
AcDbEntity
  8
0
 62
     0
100
AcDbLine
 10
195.8987187564175
 20
148.2135587535403
 30
0.0
 11
195.9774107812329
 21
148.2922507783557
 31
0.0
  0
LINE
  5
14D
330
140
100
AcDbEntity
  8
0
 62
     0
100
AcDbLine
 10
195.5693785080192
 20
147.8842185051419
 30
0.0
 11
195.8987187564175
 21
148.2135587535403
 31
0.0
  0
LINE
  5
14E
330
140
100
AcDbEntity
  8
0
 62
     0
100
AcDbLine
 10
195.4874427351548
 20
147.8920852934883
 30
0.0
 11
195.8951913212391
 21
148.2998338795726
 31
0.0
  0
LINE
  5
14F
330
140
100
AcDbEntity
  8
0
 62
     0
100
AcDbLine
 10
195.5017665306227
 20
147.9962116501669
 30
0.0
 11
195.7910649645605
 21
148.2855100841047
 31
0.0
  0
LINE
  5
150
330
140
100
AcDbEntity
  8
0
 62
     0
100
AcDbLine
 10
195.6255001039968
 20
147.5811298562768
 30
0.0
 11
195.8987187564175
 21
147.8543485086975
 31
0.0
  0
LINE
  5
151
330
140
100
AcDbEntity
  8
0
 62
     0
100
AcDbLine
 10
195.9328814224328
 20
147.8885111747128
 30
0.0
 11
196.2061467584506
 21
148.1617765107306
 31
0.0
  0
LINE
  5
152
330
140
100
AcDbEntity
  8
0
 62
     0
100
AcDbLine
 10
195.8987187564175
 20
147.8543485086975
 30
0.0
 11
195.9328814224328
 21
147.8885111747128
 31
0.0
  0
LINE
  5
153
330
140
100
AcDbEntity
  8
0
 62
     0
100
AcDbLine
 10
195.6765848418251
 20
147.5424120328945
 30
0.0
 11
195.8987187564175
 21
147.7645459474869
 31
0.0
  0
LINE
  5
154
330
140
100
AcDbEntity
  8
0
 62
     0
100
AcDbLine
 10
196.0221215226894
 20
147.8879487137588
 30
0.0
 11
196.2448645818329
 21
148.1106917729023
 31
0.0
  0
LINE
  5
155
330
140
100
AcDbEntity
  8
0
 62
     0
100
AcDbLine
 10
195.8987187564175
 20
147.7645459474869
 30
0.0
 11
196.0221215226894
 21
147.8879487137588
 31
0.0
  0
LINE
  5
156
330
140
100
AcDbEntity
  8
0
 62
     0
100
AcDbLine
 10
195.7351614899214
 20
147.5111861197801
 30
0.0
 11
195.8987187564175
 21
147.6747433862762
 31
0.0
  0
LINE
  5
157
330
140
100
AcDbEntity
  8
0
 62
     0
100
AcDbLine
 10
196.1107350625526
 20
147.8867596924113
 30
0.0
 11
196.2760904949473
 21
148.0521151248059
 31
0.0
  0
LINE
  5
158
330
140
100
AcDbEntity
  8
0
 62
     0
100
AcDbLine
 10
195.8987187564175
 20
147.6747433862762
 30
0.0
 11
196.1107350625526
 21
147.8867596924113
 31
0.0
  0
LINE
  5
159
330
140
100
AcDbEntity
  8
0
 62
     0
100
AcDbLine
 10
195.8024660335981
 20
147.4886881022461
 30
0.0
 11
195.8987187564175
 21
147.5849408250655
 31
0.0
  0
LINE
  5
15A
330
140
100
AcDbEntity
  8
0
 62
     0
100
AcDbLine
 10
196.1987348839304
 20
147.8849569525784
 30
0.0
 11
196.2985885124813
 21
147.9848105811292
 31
0.0
  0
LINE
  5
15B
330
140
100
AcDbEntity
  8
0
 62
     0
100
AcDbLine
 10
195.8987187564175
 20
147.5849408250655
 30
0.0
 11
196.1987348839304
 21
147.8849569525784
 31
0.0
  0
LINE
  5
15C
330
140
100
AcDbEntity
  8
0
 62
     0
100
AcDbLine
 10
195.8812196371476
 20
147.4776391445849
 30
0.0
 11
195.8987187564175
 21
147.4951382638548
 31
0.0
  0
LINE
  5
15D
330
140
100
AcDbEntity
  8
0
 62
     0
100
AcDbLine
 10
196.2861333070879
 20
147.8825528145251
 30
0.0
 11
196.3096374701425
 21
147.9060569775798
 31
0.0
  0
LINE
  5
15E
330
140
100
AcDbEntity
  8
0
 62
     0
100
AcDbLine
 10
195.8987187564175
 20
147.4951382638548
 30
0.0
 11
196.2861333070879
 21
147.8825528145251
 31
0.0
  0
LINE
  5
15F
330
140
100
AcDbEntity
  8
0
 62
     0
100
AcDbLine
 10
195.9784524383585
 20
147.4850693845851
 30
0.0
 11
196.3022072301423
 21
147.8088241763689
 31
0.0
  0
LINE
  5
160
330
140
100
AcDbEntity
  8
0
 62
     0
100
AcDbLine
 10
196.1353224713711
 20
147.552136856387
 30
0.0
 11
196.2351397583403
 21
147.6519541433562
 31
0.0
  0
ENDBLK
  5
161
330
140
100
AcDbEntity
  8
0
100
AcDbBlockEnd
  0
ENDSEC
  0
SECTION
  2
ENTITIES
  0
ARC
  5
75
330
2
100
AcDbEntity
  8
LOCKABLE DOWEL DOWEL COMPONENT
100
AcDbCircle
 10
449.6307953973719
 20
1903.957180086918
 30
0.0
 40
53.76531180374999
100
AcDbArc
 50
196.6606742830419
 51
223.3393257169562
  0
ARC
  5
77
330
2
100
AcDbEntity
  8
LOCKABLE DOWEL DOWEL COMPONENT
100
AcDbCircle
 10
405.2912863495566
 20
1929.55660757141
 30
0.0
 40
7.168708240499997
100
AcDbArc
 50
119.9999999999991
 51
180.0
  0
ARC
  5
78
330
2
100
AcDbEntity
  8
LOCKABLE DOWEL DOWEL COMPONENT
100
AcDbCircle
 10
449.6307953973719
 20
1903.957180086918
 30
0.0
 40
53.76531180374999
100
AcDbArc
 50
136.6606742830437
 51
163.3393257169581
  0
ARC
  5
79
330
2
100
AcDbEntity
  8
LOCKABLE DOWEL DOWEL COMPONENT
100
AcDbCircle
 10
405.2912863495566
 20
1878.357752602426
 30
0.0
 40
7.168708240499997
100
AcDbArc
 50
180.0
 51
240.0000000000009
  0
LINE
  5
7A
330
2
100
AcDbEntity
  8
LOCKABLE DOWEL DOWEL COMPONENT
100
AcDbLine
 10
398.1225781090561
 20
1929.55660757141
 30
0.0
 11
398.1225781090561
 21
1878.357752602426
 31
0.0
  0
LINE
  5
7B
330
2
100
AcDbEntity
  8
LOCKABLE DOWEL DOWEL COMPONENT
100
AcDbLine
 10
446.0464412771225
 20
1961.364318504495
 30
0.0
 11
401.7069322293064
 21
1935.764891020002
 31
0.0
  0
LINE
  5
7C
330
2
100
AcDbEntity
  8
LOCKABLE DOWEL DOWEL COMPONENT
100
AcDbLine
 10
497.5546585654374
 20
1935.764891020002
 30
0.0
 11
453.2151495176221
 21
1961.364318504495
 31
0.0
  0
ARC
  5
7D
330
2
100
AcDbEntity
  8
LOCKABLE DOWEL DOWEL COMPONENT
100
AcDbCircle
 10
449.6307953973719
 20
1903.957180086918
 30
0.0
 40
53.76531180374999
100
AcDbArc
 50
76.66067428302781
 51
103.3393257169721
  0
ARC
  5
7E
330
2
100
AcDbEntity
  8
LOCKABLE DOWEL DOWEL COMPONENT
100
AcDbCircle
 10
449.6307953973719
 20
1955.156035055903
 30
0.0
 40
7.168708240499997
100
AcDbArc
 50
60.00000000000088
 51
119.9999999999991
  0
ARC
  5
7F
330
2
100
AcDbEntity
  8
LOCKABLE DOWEL DOWEL COMPONENT
100
AcDbCircle
 10
449.6307953973719
 20
1903.957180086918
 30
0.0
 40
53.76531180374999
100
AcDbArc
 50
16.66067428304188
 51
43.33932571695622
  0
ARC
  5
80
330
2
100
AcDbEntity
  8
LOCKABLE DOWEL DOWEL COMPONENT
100
AcDbCircle
 10
493.9703044451881
 20
1929.55660757141
 30
0.0
 40
7.168708240499997
100
AcDbArc
 50
0.0
 51
60.00000000000088
  0
LINE
  5
81
330
2
100
AcDbEntity
  8
LOCKABLE DOWEL DOWEL COMPONENT
100
AcDbLine
 10
453.2151495176221
 20
1846.550041669342
 30
0.0
 11
497.5546585654383
 21
1872.149469153834
 31
0.0
  0
LINE
  5
82
330
2
100
AcDbEntity
  8
LOCKABLE DOWEL DOWEL COMPONENT
100
AcDbLine
 10
401.7069322293064
 20
1872.149469153834
 30
0.0
 11
446.0464412771225
 21
1846.550041669342
 31
0.0
  0
ARC
  5
83
330
2
100
AcDbEntity
  8
LOCKABLE DOWEL DOWEL COMPONENT
100
AcDbCircle
 10
449.6307953973719
 20
1852.758325117934
 30
0.0
 40
7.168708240499997
100
AcDbArc
 50
240.0000000000009
 51
299.999999999999
  0
ARC
  5
84
330
2
100
AcDbEntity
  8
LOCKABLE DOWEL DOWEL COMPONENT
100
AcDbCircle
 10
449.6307953973719
 20
1903.957180086918
 30
0.0
 40
53.76531180374999
100
AcDbArc
 50
256.6606742830276
 51
283.3393257169722
  0
ARC
  5
85
330
2
100
AcDbEntity
  8
LOCKABLE DOWEL DOWEL COMPONENT
100
AcDbCircle
 10
449.6307953973719
 20
1903.957180086918
 30
0.0
 40
53.76531180374999
100
AcDbArc
 50
316.6606742830438
 51
343.3393257169581
  0
ARC
  5
86
330
2
100
AcDbEntity
  8
LOCKABLE DOWEL DOWEL COMPONENT
100
AcDbCircle
 10
493.9703044451881
 20
1878.357752602426
 30
0.0
 40
7.168708240499997
100
AcDbArc
 50
299.999999999999
 51
0.0
  0
LINE
  5
87
330
2
100
AcDbEntity
  8
LOCKABLE DOWEL DOWEL COMPONENT
100
AcDbLine
 10
501.1390126856877
 20
1878.357752602426
 30
0.0
 11
501.1390126856877
 21
1929.55660757141
 31
0.0
  0
LINE
  5
88
330
2
100
AcDbEntity
  8
LOCKABLE DOWEL DOWEL COMPONENT
100
AcDbLine
 10
-322.8157996400928
 20
1961.074743296402
 30
0.0
 11
-322.8157996400928
 21
1846.839616877433
 31
0.0
  0
LINE
  5
89
330
2
100
AcDbEntity
  8
LOCKABLE DOWEL DOWEL COMPONENT
100
AcDbLine
 10
-321.5657996400928
 20
1845.589616877433
 30
0.0
 11
-314.0657996400926
 21
1845.589616877433
 31
0.0
  0
LINE
  5
8A
330
2
100
AcDbEntity
  8
LOCKABLE DOWEL DOWEL COMPONENT
100
AcDbLine
 10
-312.8157996400926
 20
1846.839616877433
 30
0.0
 11
-312.8157996400928
 21
1961.074743296402
 31
0.0
  0
LINE
  5
8B
330
2
100
AcDbEntity
  8
LOCKABLE DOWEL DOWEL COMPONENT
100
AcDbLine
 10
-314.0657996400928
 20
1962.324743296403
 30
0.0
 11
-321.5657996400928
 21
1962.324743296403
 31
0.0
  0
LINE
  5
8C
330
2
100
AcDbEntity
  8
LOCKABLE DOWEL DOWEL COMPONENT
100
AcDbLine
 10
-310.7305990142249
 20
1957.853016123578
 30
0.0
 11
-292.0447683324553
 21
1926.122361605391
 31
0.0
  0
LINE
  5
8D
330
2
100
AcDbEntity
  8
LOCKABLE DOWEL DOWEL COMPONENT
100
AcDbLine
 10
-310.7305990142249
 20
1850.061344050257
 30
0.0
 11
-292.0447683324553
 21
1881.791998568446
 31
0.0
  0
LINE
  5
8E
330
2
100
AcDbEntity
  8
LOCKABLE DOWEL DOWEL COMPONENT
100
AcDbLine
 10
-288.6461141310676
 20
1923.957180086918
 30
0.0
 11
-160.3157996400928
 21
1923.957180086918
 31
0.0
  0
LINE
  5
8F
330
2
100
AcDbEntity
  8
LOCKABLE DOWEL DOWEL COMPONENT
100
AcDbLine
 10
-288.6461141310676
 20
1883.957180086918
 30
0.0
 11
-160.3157996400928
 21
1883.957180086918
 31
0.0
  0
LINE
  5
90
330
2
100
AcDbEntity
  8
LOCKABLE DOWEL DOWEL COMPONENT
100
AcDbLine
 10
-160.3157996400928
 20
1923.957180086918
 30
0.0
 11
-160.3157996400928
 21
1883.957180086918
 31
0.0
  0
ARC
  5
91
330
2
100
AcDbEntity
  8
LOCKABLE DOWEL DOWEL COMPONENT
100
AcDbCircle
 10
-288.6461141310676
 20
1927.707180086918
 30
0.0
 40
3.749999999999999
100
AcDbArc
 50
204.9999999999926
 51
270.0
  0
ARC
  5
92
330
2
100
AcDbEntity
  8
LOCKABLE DOWEL DOWEL COMPONENT
100
AcDbCircle
 10
-288.6461141310676
 20
1880.207180086918
 30
0.0
 40
3.749999999999999
100
AcDbArc
 50
90.0
 51
155.0000000000074
  0
LINE
  5
93
330
2
100
AcDbEntity
  8
LOCKABLE DOWEL DOWEL COMPONENT
100
AcDbLine
 10
-288.6461141310676
 20
1923.957180086918
 30
0.0
 11
-288.6461141310676
 21
1883.957180086918
 31
0.0
  0
LINE
  5
94
330
2
100
AcDbEntity
  8
LOCKABLE DOWEL DOWEL COMPONENT
100
AcDbLine
 10
-292.0447683324553
 20
1881.791998568446
 30
0.0
 11
-292.0447683324553
 21
1926.122361605391
 31
0.0
  0
LINE
  5
95
330
2
100
AcDbEntity
  8
LOCKABLE DOWEL DOWEL COMPONENT
100
AcDbLine
 10
-312.8157996400928
 20
1929.400930086918
 30
0.0
 11
-322.8157996400928
 21
1929.400930086918
 31
0.0
  0
LINE
  5
96
330
2
100
AcDbEntity
  8
LOCKABLE DOWEL DOWEL COMPONENT
100
AcDbLine
 10
-312.8157996400928
 20
1878.513430086918
 30
0.0
 11
-322.8157996400928
 21
1878.513430086918
 31
0.0
  0
LINE
  5
97
330
2
100
AcDbEntity
  8
LOCKABLE DOWEL DOWEL COMPONENT
100
AcDbLine
 10
-312.8157996400928
 20
1958.574743296402
 30
0.0
 11
-311.8634837480208
 21
1958.574743296402
 31
0.0
  0
LINE
  5
98
330
2
100
AcDbEntity
  8
LOCKABLE DOWEL DOWEL COMPONENT
100
AcDbLine
 10
-312.8157996400928
 20
1849.339616877433
 30
0.0
 11
-311.8634837480208
 21
1849.339616877433
 31
0.0
  0
ARC
  5
99
330
2
100
AcDbEntity
  8
LOCKABLE DOWEL DOWEL COMPONENT
100
AcDbCircle
 10
-311.8634837480208
 20
1850.589616877433
 30
0.0
 40
1.249999999999999
100
AcDbArc
 50
270.0
 51
335.0000000000075
  0
ARC
  5
9A
330
2
100
AcDbEntity
  8
LOCKABLE DOWEL DOWEL COMPONENT
100
AcDbCircle
 10
-311.8634837480208
 20
1957.324743296403
 30
0.0
 40
1.249999999999999
100
AcDbArc
 50
24.99999999999253
 51
90.0
  0
ARC
  5
9B
330
2
100
AcDbEntity
  8
LOCKABLE DOWEL DOWEL COMPONENT
100
AcDbCircle
 10
-314.0657996400928
 20
1961.074743296402
 30
0.0
 40
1.249999999999999
100
AcDbArc
 50
0.0
 51
90.0
  0
ARC
  5
9C
330
2
100
AcDbEntity
  8
LOCKABLE DOWEL DOWEL COMPONENT
100
AcDbCircle
 10
-314.0657996400926
 20
1846.839616877433
 30
0.0
 40
1.249999999999999
100
AcDbArc
 50
270.0
 51
0.0
  0
ARC
  5
9D
330
2
100
AcDbEntity
  8
LOCKABLE DOWEL DOWEL COMPONENT
100
AcDbCircle
 10
-321.5657996400928
 20
1846.839616877433
 30
0.0
 40
1.249999999999999
100
AcDbArc
 50
180.0
 51
270.0
  0
ARC
  5
9E
330
2
100
AcDbEntity
  8
LOCKABLE DOWEL DOWEL COMPONENT
100
AcDbCircle
 10
-321.5657996400928
 20
1961.074743296402
 30
0.0
 40
1.249999999999999
100
AcDbArc
 50
90.0
 51
180.0
  0
LINE
  5
9F
330
2
100
AcDbEntity
  8
LOCKABLE DOWEL DOWEL COMPONENT
100
AcDbLine
 10
-288.6461141310676
 20
1903.957180086918
 30
0.0
 11
-288.6461141310676
 21
1903.957180086918
 31
0.0
  0
CIRCLE
  5
A0
330
2
100
AcDbEntity
  8
LOCKABLE DOWEL DOWEL COMPONENT
100
AcDbCircle
 10
449.6307953973719
 20
1903.957180086918
 30
0.0
 40
13.95
  0
CIRCLE
  5
A1
330
2
100
AcDbEntity
  8
LOCKABLE DOWEL DOWEL COMPONENT
100
AcDbCircle
 10
449.6307953973719
 20
1903.957180086918
 30
0.0
 40
13.125
  0
CIRCLE
  5
A2
330
2
100
AcDbEntity
  8
LOCKABLE DOWEL DOWEL COMPONENT
100
AcDbCircle
 10
449.6307953973719
 20
1903.957180086918
 30
0.0
 40
20.0
  0
CIRCLE
  5
A3
330
2
100
AcDbEntity
  8
LOCKABLE DOWEL DOWEL COMPONENT
100
AcDbCircle
 10
449.6307953973719
 20
1903.957180086918
 30
0.0
 40
22.1625
  0
LINE
  5
A4
330
2
100
AcDbEntity
  8
GRID
  6
CENTER
 48
3.0
100
AcDbLine
 10
-363.4092549051202
 20
1903.957180086918
 30
0.0
 11
145.8992247484491
 21
1903.957180086918
 31
0.0
  0
LINE
  5
A9
330
2
100
AcDbEntity
  8
LOCKABLE DOWEL DOWEL COMPONENT
  6
HIDDEN1_01
 48
0.5
100
AcDbLine
 10
32.23420035990739
 20
1893.957180086918
 30
0.0
 11
37.43420035990744
 21
1893.957180086918
 31
0.0
  0
LINE
  5
AB
330
2
100
AcDbEntity
  8
LOCKABLE DOWEL DOWEL COMPONENT
  6
HIDDEN1_01
 48
0.5
100
AcDbLine
 10
42.43420035990744
 20
1893.957180086918
 30
0.0
 11
47.63420035990725
 21
1893.957180086918
 31
0.0
  0
LINE
  5
AC
330
2
100
AcDbEntity
  8
LOCKABLE DOWEL DOWEL COMPONENT
  6
HIDDEN1_01
 48
0.5
100
AcDbLine
 10
52.63420035990748
 20
1893.957180086918
 30
0.0
 11
57.83420035990729
 21
1893.957180086918
 31
0.0
  0
LINE
  5
AD
330
2
100
AcDbEntity
  8
LOCKABLE DOWEL DOWEL COMPONENT
  6
HIDDEN1_01
 48
0.5
100
AcDbLine
 10
62.83420035990729
 20
1893.957180086918
 30
0.0
 11
68.03420035990734
 21
1893.957180086918
 31
0.0
  0
LINE
  5
AE
330
2
100
AcDbEntity
  8
LOCKABLE DOWEL DOWEL COMPONENT
  6
HIDDEN1_01
 48
0.5
100
AcDbLine
 10
73.03420035990734
 20
1893.957180086918
 30
0.0
 11
78.23420035990739
 21
1893.957180086918
 31
0.0
  0
LINE
  5
AF
330
2
100
AcDbEntity
  8
LOCKABLE DOWEL DOWEL COMPONENT
  6
HIDDEN1_01
 48
0.5
100
AcDbLine
 10
83.23420035990739
 20
1893.957180086918
 30
0.0
 11
88.43420035990721
 21
1893.957180086918
 31
0.0
  0
LINE
  5
B0
330
2
100
AcDbEntity
  8
LOCKABLE DOWEL DOWEL COMPONENT
  6
HIDDEN1_01
 48
0.5
100
AcDbLine
 10
32.23420035990739
 20
1913.957180086918
 30
0.0
 11
37.43420035990744
 21
1913.957180086918
 31
0.0
  0
LINE
  5
B1
330
2
100
AcDbEntity
  8
LOCKABLE DOWEL DOWEL COMPONENT
  6
HIDDEN1_01
 48
0.5
100
AcDbLine
 10
42.43420035990744
 20
1913.957180086918
 30
0.0
 11
47.63420035990748
 21
1913.957180086918
 31
0.0
  0
LINE
  5
B2
330
2
100
AcDbEntity
  8
LOCKABLE DOWEL DOWEL COMPONENT
  6
HIDDEN1_01
 48
0.5
100
AcDbLine
 10
52.63420035990748
 20
1913.957180086918
 30
0.0
 11
57.83420035990729
 21
1913.957180086918
 31
0.0
  0
LINE
  5
B3
330
2
100
AcDbEntity
  8
LOCKABLE DOWEL DOWEL COMPONENT
  6
HIDDEN1_01
 48
0.5
100
AcDbLine
 10
62.83420035990729
 20
1913.957180086918
 30
0.0
 11
68.03420035990734
 21
1913.957180086918
 31
0.0
  0
LINE
  5
B4
330
2
100
AcDbEntity
  8
LOCKABLE DOWEL DOWEL COMPONENT
  6
HIDDEN1_01
 48
0.5
100
AcDbLine
 10
73.03420035990734
 20
1913.957180086918
 30
0.0
 11
78.23420035990739
 21
1913.957180086918
 31
0.0
  0
LINE
  5
B5
330
2
100
AcDbEntity
  8
LOCKABLE DOWEL DOWEL COMPONENT
  6
HIDDEN1_01
 48
0.5
100
AcDbLine
 10
83.23420035990739
 20
1913.957180086918
 30
0.0
 11
88.43420035990721
 21
1913.957180086918
 31
0.0
  0
LINE
  5
B6
330
2
100
AcDbEntity
  8
LOCKABLE DOWEL DOWEL COMPONENT
 48
0.5
100
AcDbLine
 10
-156.5657996400925
 20
1888.957180086918
 30
0.0
 11
-127.8157996400928
 21
1888.957180086918
 31
0.0
  0
LINE
  5
B7
330
2
100
AcDbEntity
  8
LOCKABLE DOWEL DOWEL COMPONENT
  6
HIDDEN1_01
100
AcDbLine
 10
-127.8157996400928
 20
1888.957180086918
 30
0.0
 11
31.73420035990739
 21
1888.957180086918
 31
0.0
  0
LINE
  5
B8
330
2
100
AcDbEntity
  8
LOCKABLE DOWEL DOWEL COMPONENT
  6
HIDDEN1_01
 48
0.5
100
AcDbLine
 10
37.93420035990744
 20
1888.957180086918
 30
0.0
 11
38.63420035990748
 21
1888.957180086918
 31
0.0
  0
LINE
  5
B9
330
2
100
AcDbEntity
  8
LOCKABLE DOWEL DOWEL COMPONENT
  6
HIDDEN1_01
 48
0.5
100
AcDbLine
 10
78.73420035990739
 20
1888.957180086918
 30
0.0
 11
82.73420035990739
 21
1888.957180086918
 31
0.0
  0
LINE
  5
BA
330
2
100
AcDbEntity
  8
LOCKABLE DOWEL DOWEL COMPONENT
  6
HIDDEN1_01
 48
0.5
100
AcDbLine
 10
78.23420035990739
 20
1889.457180086918
 30
0.0
 11
78.73420035990739
 21
1888.957180086918
 31
0.0
  0
LINE
  5
BB
330
2
100
AcDbEntity
  8
LOCKABLE DOWEL DOWEL COMPONENT
  6
HIDDEN1_01
 48
0.5
100
AcDbLine
 10
88.9342003599072
 20
1888.957180086918
 30
0.0
 11
92.9342003599072
 21
1888.957180086918
 31
0.0
  0
LINE
  5
BC
330
2
100
AcDbEntity
  8
LOCKABLE DOWEL DOWEL COMPONENT
  6
HIDDEN1_01
 48
0.5
100
AcDbLine
 10
88.43420035990721
 20
1889.457180086918
 30
0.0
 11
88.9342003599072
 21
1888.957180086918
 31
0.0
  0
LINE
  5
BD
330
2
100
AcDbEntity
  8
LOCKABLE DOWEL DOWEL COMPONENT
 48
0.5
100
AcDbLine
 10
-156.565799640093
 20
1918.957180086918
 30
0.0
 11
-127.8157996400928
 21
1918.957180086918
 31
0.0
  0
LINE
  5
BE
330
2
100
AcDbEntity
  8
LOCKABLE DOWEL DOWEL COMPONENT
  6
HIDDEN1_01
100
AcDbLine
 10
-127.8157996400928
 20
1918.957180086918
 30
0.0
 11
31.73420035990739
 21
1918.957180086918
 31
0.0
  0
LINE
  5
BF
330
2
100
AcDbEntity
  8
LOCKABLE DOWEL DOWEL COMPONENT
  6
HIDDEN1_01
 48
0.5
100
AcDbLine
 10
32.23420035990739
 20
1918.457180086918
 30
0.0
 11
31.73420035990739
 21
1918.957180086918
 31
0.0
  0
LINE
  5
C0
330
2
100
AcDbEntity
  8
LOCKABLE DOWEL DOWEL COMPONENT
  6
HIDDEN1_01
 48
0.5
100
AcDbLine
 10
37.93420035990744
 20
1918.957180086918
 30
0.0
 11
38.63420035990748
 21
1918.957180086918
 31
0.0
  0
LINE
  5
C1
330
2
100
AcDbEntity
  8
LOCKABLE DOWEL DOWEL COMPONENT
  6
HIDDEN1_01
 48
0.5
100
AcDbLine
 10
78.73420035990739
 20
1918.957180086918
 30
0.0
 11
82.73420035990739
 21
1918.957180086918
 31
0.0
  0
LINE
  5
C2
330
2
100
AcDbEntity
  8
LOCKABLE DOWEL DOWEL COMPONENT
  6
HIDDEN1_01
 48
0.5
100
AcDbLine
 10
83.23420035990739
 20
1918.457180086918
 30
0.0
 11
82.73420035990739
 21
1918.957180086918
 31
0.0
  0
LINE
  5
C3
330
2
100
AcDbEntity
  8
LOCKABLE DOWEL DOWEL COMPONENT
  6
HIDDEN1_01
 48
0.5
100
AcDbLine
 10
78.23420035990739
 20
1918.457180086918
 30
0.0
 11
78.73420035990739
 21
1918.957180086918
 31
0.0
  0
LINE
  5
C4
330
2
100
AcDbEntity
  8
LOCKABLE DOWEL DOWEL COMPONENT
  6
HIDDEN1_01
 48
0.5
100
AcDbLine
 10
88.9342003599072
 20
1918.957180086918
 30
0.0
 11
92.9342003599072
 21
1918.957180086918
 31
0.0
  0
LINE
  5
C5
330
2
100
AcDbEntity
  8
LOCKABLE DOWEL DOWEL COMPONENT
  6
HIDDEN1_01
 48
0.5
100
AcDbLine
 10
88.43420035990721
 20
1918.457180086918
 30
0.0
 11
88.9342003599072
 21
1918.957180086918
 31
0.0
  0
LINE
  5
C6
330
2
100
AcDbEntity
  8
LOCKABLE DOWEL DOWEL COMPONENT
  6
HIDDEN1_01
100
AcDbLine
 10
93.43420035990721
 20
1918.457180086918
 30
0.0
 11
93.43420035990721
 21
1889.457180086918
 31
0.0
  0
LINE
  5
C7
330
2
100
AcDbEntity
  8
LOCKABLE DOWEL DOWEL COMPONENT
  6
HIDDEN1_01
100
AcDbLine
 10
92.9342003599072
 20
1888.957180086918
 30
0.0
 11
93.43420035990721
 21
1889.457180086918
 31
0.0
  0
LINE
  5
C8
330
2
100
AcDbEntity
  8
LOCKABLE DOWEL DOWEL COMPONENT
  6
HIDDEN1_01
100
AcDbLine
 10
92.9342003599072
 20
1918.957180086918
 30
0.0
 11
93.43420035990721
 21
1918.457180086918
 31
0.0
  0
LINE
  5
C9
330
2
100
AcDbEntity
  8
LOCKABLE DOWEL DOWEL COMPONENT
  6
HIDDEN1_01
100
AcDbLine
 10
88.43420035990721
 20
1918.457180086918
 30
0.0
 11
88.43420035990721
 21
1889.457180086918
 31
0.0
  0
LINE
  5
CA
330
2
100
AcDbEntity
  8
LOCKABLE DOWEL DOWEL COMPONENT
  6
HIDDEN1_01
100
AcDbLine
 10
83.23420035990739
 20
1918.457180086918
 30
0.0
 11
83.23420035990739
 21
1889.457180086918
 31
0.0
  0
LINE
  5
CB
330
2
100
AcDbEntity
  8
LOCKABLE DOWEL DOWEL COMPONENT
  6
HIDDEN1_01
100
AcDbLine
 10
82.73420035990739
 20
1888.957180086918
 30
0.0
 11
83.23420035990739
 21
1889.457180086918
 31
0.0
  0
LINE
  5
CC
330
2
100
AcDbEntity
  8
LOCKABLE DOWEL DOWEL COMPONENT
  6
HIDDEN1_01
100
AcDbLine
 10
78.23420035990739
 20
1918.457180086918
 30
0.0
 11
78.23420035990739
 21
1889.457180086918
 31
0.0
  0
LINE
  5
CD
330
2
100
AcDbEntity
  8
LOCKABLE DOWEL DOWEL COMPONENT
  6
HIDDEN1_01
 48
0.5
100
AcDbLine
 10
68.53420035990734
 20
1888.957180086918
 30
0.0
 11
72.53420035990735
 21
1888.957180086918
 31
0.0
  0
LINE
  5
CE
330
2
100
AcDbEntity
  8
LOCKABLE DOWEL DOWEL COMPONENT
  6
HIDDEN1_01
 48
0.5
100
AcDbLine
 10
73.03420035990734
 20
1889.457180086918
 30
0.0
 11
72.53420035990735
 21
1888.957180086918
 31
0.0
  0
LINE
  5
CF
330
2
100
AcDbEntity
  8
LOCKABLE DOWEL DOWEL COMPONENT
  6
HIDDEN1_01
 48
0.5
100
AcDbLine
 10
68.03420035990734
 20
1889.457180086918
 30
0.0
 11
68.53420035990734
 21
1888.957180086918
 31
0.0
  0
LINE
  5
D0
330
2
100
AcDbEntity
  8
LOCKABLE DOWEL DOWEL COMPONENT
  6
HIDDEN1_01
 48
0.5
100
AcDbLine
 10
68.53420035990734
 20
1918.957180086918
 30
0.0
 11
72.53420035990735
 21
1918.957180086918
 31
0.0
  0
LINE
  5
D1
330
2
100
AcDbEntity
  8
LOCKABLE DOWEL DOWEL COMPONENT
  6
HIDDEN1_01
 48
0.5
100
AcDbLine
 10
73.03420035990734
 20
1918.457180086918
 30
0.0
 11
72.53420035990735
 21
1918.957180086918
 31
0.0
  0
LINE
  5
D2
330
2
100
AcDbEntity
  8
LOCKABLE DOWEL DOWEL COMPONENT
  6
HIDDEN1_01
 48
0.5
100
AcDbLine
 10
68.03420035990734
 20
1918.457180086918
 30
0.0
 11
68.53420035990734
 21
1918.957180086918
 31
0.0
  0
LINE
  5
D3
330
2
100
AcDbEntity
  8
LOCKABLE DOWEL DOWEL COMPONENT
  6
HIDDEN1_01
100
AcDbLine
 10
73.03420035990734
 20
1918.457180086918
 30
0.0
 11
73.03420035990734
 21
1889.457180086918
 31
0.0
  0
LINE
  5
D4
330
2
100
AcDbEntity
  8
LOCKABLE DOWEL DOWEL COMPONENT
  6
HIDDEN1_01
100
AcDbLine
 10
68.03420035990734
 20
1918.457180086918
 30
0.0
 11
68.03420035990734
 21
1889.457180086918
 31
0.0
  0
LINE
  5
D5
330
2
100
AcDbEntity
  8
LOCKABLE DOWEL DOWEL COMPONENT
  6
HIDDEN1_01
 48
0.5
100
AcDbLine
 10
58.3342003599073
 20
1888.957180086918
 30
0.0
 11
62.3342003599073
 21
1888.957180086918
 31
0.0
  0
LINE
  5
D6
330
2
100
AcDbEntity
  8
LOCKABLE DOWEL DOWEL COMPONENT
  6
HIDDEN1_01
 48
0.5
100
AcDbLine
 10
58.3342003599073
 20
1918.957180086918
 30
0.0
 11
62.3342003599073
 21
1918.957180086918
 31
0.0
  0
LINE
  5
D7
330
2
100
AcDbEntity
  8
LOCKABLE DOWEL DOWEL COMPONENT
  6
HIDDEN1_01
 48
0.5
100
AcDbLine
 10
62.83420035990729
 20
1918.457180086918
 30
0.0
 11
62.3342003599073
 21
1918.957180086918
 31
0.0
  0
LINE
  5
D8
330
2
100
AcDbEntity
  8
LOCKABLE DOWEL DOWEL COMPONENT
  6
HIDDEN1_01
 48
0.5
100
AcDbLine
 10
57.83420035990729
 20
1918.457180086918
 30
0.0
 11
58.3342003599073
 21
1918.957180086918
 31
0.0
  0
LINE
  5
D9
330
2
100
AcDbEntity
  8
LOCKABLE DOWEL DOWEL COMPONENT
  6
HIDDEN1_01
100
AcDbLine
 10
62.83420035990729
 20
1918.457180086918
 30
0.0
 11
62.83420035990729
 21
1889.457180086918
 31
0.0
  0
LINE
  5
DA
330
2
100
AcDbEntity
  8
LOCKABLE DOWEL DOWEL COMPONENT
  6
HIDDEN1_01
100
AcDbLine
 10
62.3342003599073
 20
1888.957180086918
 30
0.0
 11
62.83420035990729
 21
1889.457180086918
 31
0.0
  0
LINE
  5
DB
330
2
100
AcDbEntity
  8
LOCKABLE DOWEL DOWEL COMPONENT
  6
HIDDEN1_01
100
AcDbLine
 10
57.83420035990729
 20
1918.457180086918
 30
0.0
 11
57.83420035990729
 21
1889.457180086918
 31
0.0
  0
LINE
  5
DC
330
2
100
AcDbEntity
  8
LOCKABLE DOWEL DOWEL COMPONENT
  6
HIDDEN1_01
100
AcDbLine
 10
58.3342003599073
 20
1888.957180086918
 30
0.0
 11
57.83420035990729
 21
1889.457180086918
 31
0.0
  0
LINE
  5
DD
330
2
100
AcDbEntity
  8
LOCKABLE DOWEL DOWEL COMPONENT
  6
HIDDEN1_01
 48
0.5
100
AcDbLine
 10
48.13420035990748
 20
1888.957180086918
 30
0.0
 11
52.13420035990726
 21
1888.957180086918
 31
0.0
  0
LINE
  5
DE
330
2
100
AcDbEntity
  8
LOCKABLE DOWEL DOWEL COMPONENT
  6
HIDDEN1_01
 48
0.5
100
AcDbLine
 10
47.63420035990748
 20
1889.457180086918
 30
0.0
 11
48.13420035990748
 21
1888.957180086918
 31
0.0
  0
LINE
  5
DF
330
2
100
AcDbEntity
  8
LOCKABLE DOWEL DOWEL COMPONENT
  6
HIDDEN1_01
 48
0.5
100
AcDbLine
 10
48.13420035990748
 20
1918.957180086918
 30
0.0
 11
52.13420035990748
 21
1918.957180086918
 31
0.0
  0
LINE
  5
E0
330
2
100
AcDbEntity
  8
LOCKABLE DOWEL DOWEL COMPONENT
  6
HIDDEN1_01
 48
0.5
100
AcDbLine
 10
52.63420035990748
 20
1918.457180086918
 30
0.0
 11
52.13420035990748
 21
1918.957180086918
 31
0.0
  0
LINE
  5
E1
330
2
100
AcDbEntity
  8
LOCKABLE DOWEL DOWEL COMPONENT
  6
HIDDEN1_01
 48
0.5
100
AcDbLine
 10
47.63420035990748
 20
1918.457180086918
 30
0.0
 11
48.13420035990748
 21
1918.957180086918
 31
0.0
  0
LINE
  5
E2
330
2
100
AcDbEntity
  8
LOCKABLE DOWEL DOWEL COMPONENT
  6
HIDDEN1_01
100
AcDbLine
 10
52.63420035990748
 20
1918.457180086918
 30
0.0
 11
52.63420035990725
 21
1889.457180086918
 31
0.0
  0
LINE
  5
E3
330
2
100
AcDbEntity
  8
LOCKABLE DOWEL DOWEL COMPONENT
  6
HIDDEN1_01
100
AcDbLine
 10
52.13420035990726
 20
1888.957180086918
 30
0.0
 11
52.63420035990725
 21
1889.457180086918
 31
0.0
  0
LINE
  5
E4
330
2
100
AcDbEntity
  8
LOCKABLE DOWEL DOWEL COMPONENT
  6
HIDDEN1_01
100
AcDbLine
 10
47.63420035990748
 20
1918.457180086918
 30
0.0
 11
47.63420035990748
 21
1889.457180086918
 31
0.0
  0
LINE
  5
E5
330
2
100
AcDbEntity
  8
LOCKABLE DOWEL DOWEL COMPONENT
  6
HIDDEN1_01
 48
0.5
100
AcDbLine
 10
37.93420035990744
 20
1888.957180086918
 30
0.0
 11
41.93420035990743
 21
1888.957180086918
 31
0.0
  0
LINE
  5
E6
330
2
100
AcDbEntity
  8
LOCKABLE DOWEL DOWEL COMPONENT
  6
HIDDEN1_01
 48
0.5
100
AcDbLine
 10
37.43420035990744
 20
1889.457180086918
 30
0.0
 11
37.93420035990744
 21
1888.957180086918
 31
0.0
  0
LINE
  5
E7
330
2
100
AcDbEntity
  8
LOCKABLE DOWEL DOWEL COMPONENT
  6
HIDDEN1_01
 48
0.5
100
AcDbLine
 10
37.93420035990744
 20
1918.957180086918
 30
0.0
 11
41.93420035990743
 21
1918.957180086918
 31
0.0
  0
LINE
  5
E8
330
2
100
AcDbEntity
  8
LOCKABLE DOWEL DOWEL COMPONENT
  6
HIDDEN1_01
 48
0.5
100
AcDbLine
 10
37.43420035990744
 20
1918.457180086918
 30
0.0
 11
37.93420035990744
 21
1918.957180086918
 31
0.0
  0
LINE
  5
E9
330
2
100
AcDbEntity
  8
LOCKABLE DOWEL DOWEL COMPONENT
  6
HIDDEN1_01
100
AcDbLine
 10
42.43420035990744
 20
1918.457180086918
 30
0.0
 11
42.43420035990744
 21
1889.457180086918
 31
0.0
  0
LINE
  5
EA
330
2
100
AcDbEntity
  8
LOCKABLE DOWEL DOWEL COMPONENT
  6
HIDDEN1_01
100
AcDbLine
 10
41.93420035990743
 20
1918.957180086918
 30
0.0
 11
42.43420035990744
 21
1918.457180086918
 31
0.0
  0
LINE
  5
EB
330
2
100
AcDbEntity
  8
LOCKABLE DOWEL DOWEL COMPONENT
  6
HIDDEN1_01
100
AcDbLine
 10
41.93420035990743
 20
1888.957180086918
 30
0.0
 11
42.43420035990744
 21
1889.457180086918
 31
0.0
  0
LINE
  5
EC
330
2
100
AcDbEntity
  8
LOCKABLE DOWEL DOWEL COMPONENT
  6
HIDDEN1_01
100
AcDbLine
 10
37.43420035990744
 20
1918.457180086918
 30
0.0
 11
37.43420035990744
 21
1889.457180086918
 31
0.0
  0
LINE
  5
ED
330
2
100
AcDbEntity
  8
LOCKABLE DOWEL DOWEL COMPONENT
  6
HIDDEN1_01
 48
0.5
100
AcDbLine
 10
27.23420035990739
 20
1888.957180086918
 30
0.0
 11
31.73420035990739
 21
1888.957180086918
 31
0.0
  0
LINE
  5
EE
330
2
100
AcDbEntity
  8
LOCKABLE DOWEL DOWEL COMPONENT
  6
HIDDEN1_01
 48
0.5
100
AcDbLine
 10
27.23420035990739
 20
1918.957180086918
 30
0.0
 11
31.73420035990739
 21
1918.957180086918
 31
0.0
  0
LINE
  5
EF
330
2
100
AcDbEntity
  8
LOCKABLE DOWEL DOWEL COMPONENT
  6
HIDDEN1_01
100
AcDbLine
 10
32.23420035990739
 20
1918.457180086918
 30
0.0
 11
32.23420035990739
 21
1889.457180086918
 31
0.0
  0
LINE
  5
F0
330
2
100
AcDbEntity
  8
LOCKABLE DOWEL DOWEL COMPONENT
  6
HIDDEN1_01
100
AcDbLine
 10
31.73420035990739
 20
1888.957180086918
 30
0.0
 11
32.23420035990739
 21
1889.457180086918
 31
0.0
  0
LINE
  5
F1
330
2
100
AcDbEntity
  8
LOCKABLE DOWEL DOWEL COMPONENT
  6
HIDDEN1_01
100
AcDbLine
 10
31.73420035990739
 20
1918.957180086918
 30
0.0
 11
31.73420035990739
 21
1910.384877569493
 31
0.0
  0
LINE
  5
F2
330
2
100
AcDbEntity
  8
LOCKABLE DOWEL DOWEL COMPONENT
  6
HIDDEN1_01
100
AcDbLine
 10
31.73420035990739
 20
1888.957180086918
 30
0.0
 11
31.73420035990739
 21
1896.574369438002
 31
0.0
  0
LINE
  5
F3
330
2
100
AcDbEntity
  8
LOCKABLE DOWEL DOWEL COMPONENT
  6
HIDDEN1_01
100
AcDbLine
 10
37.93420035990744
 20
1918.957180086918
 30
0.0
 11
37.93420035990744
 21
1910.384877569493
 31
0.0
  0
LINE
  5
F4
330
2
100
AcDbEntity
  8
LOCKABLE DOWEL DOWEL COMPONENT
  6
HIDDEN1_01
100
AcDbLine
 10
37.93420035990744
 20
1888.957180086918
 30
0.0
 11
37.93420035990744
 21
1896.574369438002
 31
0.0
  0
LINE
  5
F5
330
2
100
AcDbEntity
  8
LOCKABLE DOWEL DOWEL COMPONENT
  6
HIDDEN1_01
100
AcDbLine
 10
41.93420035990743
 20
1918.957180086918
 30
0.0
 11
41.93420035990743
 21
1910.384877569493
 31
0.0
  0
LINE
  5
F6
330
2
100
AcDbEntity
  8
LOCKABLE DOWEL DOWEL COMPONENT
  6
HIDDEN1_01
100
AcDbLine
 10
41.93420035990743
 20
1888.957180086918
 30
0.0
 11
41.93420035990743
 21
1896.574369438002
 31
0.0
  0
LINE
  5
F7
330
2
100
AcDbEntity
  8
LOCKABLE DOWEL DOWEL COMPONENT
  6
HIDDEN1_01
100
AcDbLine
 10
48.13420035990748
 20
1918.957180086918
 30
0.0
 11
48.13420035990748
 21
1910.384877569493
 31
0.0
  0
LINE
  5
F8
330
2
100
AcDbEntity
  8
LOCKABLE DOWEL DOWEL COMPONENT
  6
HIDDEN1_01
100
AcDbLine
 10
48.13420035990748
 20
1888.957180086918
 30
0.0
 11
48.13420035990748
 21
1896.574369438002
 31
0.0
  0
LINE
  5
F9
330
2
100
AcDbEntity
  8
LOCKABLE DOWEL DOWEL COMPONENT
  6
HIDDEN1_01
100
AcDbLine
 10
52.13420035990748
 20
1918.957180086918
 30
0.0
 11
52.13420035990748
 21
1910.384877569493
 31
0.0
  0
LINE
  5
FA
330
2
100
AcDbEntity
  8
LOCKABLE DOWEL DOWEL COMPONENT
  6
HIDDEN1_01
100
AcDbLine
 10
52.13420035990748
 20
1888.957180086918
 30
0.0
 11
52.13420035990748
 21
1896.574369438002
 31
0.0
  0
LINE
  5
FB
330
2
100
AcDbEntity
  8
LOCKABLE DOWEL DOWEL COMPONENT
  6
HIDDEN1_01
100
AcDbLine
 10
58.3342003599073
 20
1918.957180086918
 30
0.0
 11
58.3342003599073
 21
1910.384877569493
 31
0.0
  0
LINE
  5
FC
330
2
100
AcDbEntity
  8
LOCKABLE DOWEL DOWEL COMPONENT
  6
HIDDEN1_01
100
AcDbLine
 10
58.3342003599073
 20
1888.957180086918
 30
0.0
 11
58.3342003599073
 21
1896.574369438002
 31
0.0
  0
LINE
  5
FD
330
2
100
AcDbEntity
  8
LOCKABLE DOWEL DOWEL COMPONENT
  6
HIDDEN1_01
100
AcDbLine
 10
62.3342003599073
 20
1918.957180086918
 30
0.0
 11
62.3342003599073
 21
1910.384877569493
 31
0.0
  0
LINE
  5
FE
330
2
100
AcDbEntity
  8
LOCKABLE DOWEL DOWEL COMPONENT
  6
HIDDEN1_01
100
AcDbLine
 10
62.3342003599073
 20
1888.957180086918
 30
0.0
 11
62.3342003599073
 21
1896.574369438002
 31
0.0
  0
LINE
  5
FF
330
2
100
AcDbEntity
  8
LOCKABLE DOWEL DOWEL COMPONENT
  6
HIDDEN1_01
100
AcDbLine
 10
68.53420035990734
 20
1918.957180086918
 30
0.0
 11
68.53420035990734
 21
1910.384877569493
 31
0.0
  0
LINE
  5
100
330
2
100
AcDbEntity
  8
LOCKABLE DOWEL DOWEL COMPONENT
  6
HIDDEN1_01
100
AcDbLine
 10
68.53420035990734
 20
1888.957180086918
 30
0.0
 11
68.53420035990734
 21
1896.574369438002
 31
0.0
  0
LINE
  5
101
330
2
100
AcDbEntity
  8
LOCKABLE DOWEL DOWEL COMPONENT
  6
HIDDEN1_01
100
AcDbLine
 10
72.53420035990735
 20
1918.957180086918
 30
0.0
 11
72.53420035990735
 21
1910.384877569493
 31
0.0
  0
LINE
  5
102
330
2
100
AcDbEntity
  8
LOCKABLE DOWEL DOWEL COMPONENT
  6
HIDDEN1_01
100
AcDbLine
 10
72.53420035990735
 20
1888.957180086918
 30
0.0
 11
72.53420035990735
 21
1896.574369438002
 31
0.0
  0
LINE
  5
103
330
2
100
AcDbEntity
  8
LOCKABLE DOWEL DOWEL COMPONENT
  6
HIDDEN1_01
100
AcDbLine
 10
78.73420035990739
 20
1918.957180086918
 30
0.0
 11
78.73420035990739
 21
1910.384877569493
 31
0.0
  0
LINE
  5
104
330
2
100
AcDbEntity
  8
LOCKABLE DOWEL DOWEL COMPONENT
  6
HIDDEN1_01
100
AcDbLine
 10
78.73420035990739
 20
1888.957180086918
 30
0.0
 11
78.73420035990739
 21
1896.574369438002
 31
0.0
  0
LINE
  5
105
330
2
100
AcDbEntity
  8
LOCKABLE DOWEL DOWEL COMPONENT
  6
HIDDEN1_01
100
AcDbLine
 10
82.73420035990739
 20
1918.957180086918
 30
0.0
 11
82.73420035990739
 21
1910.384877569493
 31
0.0
  0
LINE
  5
106
330
2
100
AcDbEntity
  8
LOCKABLE DOWEL DOWEL COMPONENT
  6
HIDDEN1_01
100
AcDbLine
 10
82.73420035990739
 20
1888.957180086918
 30
0.0
 11
82.73420035990739
 21
1896.574369438002
 31
0.0
  0
LINE
  5
107
330
2
100
AcDbEntity
  8
LOCKABLE DOWEL DOWEL COMPONENT
  6
HIDDEN1_01
100
AcDbLine
 10
88.9342003599072
 20
1918.957180086918
 30
0.0
 11
88.9342003599072
 21
1910.384877569493
 31
0.0
  0
LINE
  5
108
330
2
100
AcDbEntity
  8
LOCKABLE DOWEL DOWEL COMPONENT
  6
HIDDEN1_01
100
AcDbLine
 10
88.9342003599072
 20
1888.957180086918
 30
0.0
 11
88.9342003599072
 21
1896.574369438002
 31
0.0
  0
LINE
  5
109
330
2
100
AcDbEntity
  8
LOCKABLE DOWEL DOWEL COMPONENT
  6
HIDDEN1_01
100
AcDbLine
 10
92.9342003599072
 20
1918.957180086918
 30
0.0
 11
92.9342003599072
 21
1910.384877569493
 31
0.0
  0
LINE
  5
10A
330
2
100
AcDbEntity
  8
LOCKABLE DOWEL DOWEL COMPONENT
  6
HIDDEN1_01
100
AcDbLine
 10
92.9342003599072
 20
1888.957180086918
 30
0.0
 11
92.9342003599072
 21
1896.574369438002
 31
0.0
  0
LINE
  5
10B
330
2
100
AcDbEntity
  8
LOCKABLE DOWEL SLEEVE
  6
CENTER2
100
AcDbLine
 10
-47.86272822116575
 20
1909.778644893991
 30
0.0
 11
-47.86272822116575
 21
1898.528644893991
 31
0.0
  0
LINE
  5
10D
330
2
100
AcDbEntity
  8
LOCKABLE DOWEL SLEEVE
100
AcDbLine
 10
-123.8157996400928
 20
1923.957180086918
 30
0.0
 11
-1.960981623532006
 21
1923.957180086918
 31
0.0
  0
LINE
  5
10E
330
2
100
AcDbEntity
  8
LOCKABLE DOWEL SLEEVE
  6
HIDDEN1_01
100
AcDbLine
 10
-1.960981623532006
 20
1923.957180086918
 30
0.0
 11
42.13727177883424
 21
1923.957180086918
 31
0.0
  0
LINE
  5
10F
330
2
100
AcDbEntity
  8
LOCKABLE DOWEL SLEEVE
100
AcDbLine
 10
-123.8157996400928
 20
1883.957180086918
 30
0.0
 11
-1.960981623532006
 21
1883.957180086918
 31
0.0
  0
LINE
  5
110
330
2
100
AcDbEntity
  8
LOCKABLE DOWEL SLEEVE
  6
HIDDEN1_01
100
AcDbLine
 10
-1.960981623532006
 20
1883.957180086918
 30
0.0
 11
42.13727177883424
 21
1883.957180086918
 31
0.0
  0
LINE
  5
111
330
2
100
AcDbEntity
  8
LOCKABLE DOWEL SLEEVE
  6
HIDDEN1_01
100
AcDbLine
 10
42.13727177883424
 20
1923.957180086918
 30
0.0
 11
42.13727177883424
 21
1883.957180086918
 31
0.0
  0
LINE
  5
112
330
2
100
AcDbEntity
  8
LOCKABLE DOWEL SLEEVE
100
AcDbLine
 10
-123.8157996400928
 20
1953.957180086918
 30
0.0
 11
-123.8157996400928
 21
1853.957180086918
 31
0.0
  0
LINE
  5
113
330
2
100
AcDbEntity
  8
LOCKABLE DOWEL SLEEVE
100
AcDbLine
 10
-127.8157996400928
 20
1953.957180086918
 30
0.0
 11
-127.8157996400928
 21
1853.957180086918
 31
0.0
  0
LINE
  5
114
330
2
100
AcDbEntity
  8
LOCKABLE DOWEL SLEEVE
100
AcDbLine
 10
-127.8157996400928
 20
1853.957180086918
 30
0.0
 11
-123.815799640093
 21
1853.957180086918
 31
0.0
  0
LINE
  5
115
330
2
100
AcDbEntity
  8
LOCKABLE DOWEL SLEEVE
  6
CENTER2
100
AcDbLine
 10
-133.732620259881
 20
1946.011589440028
 30
0.0
 11
-117.9405696263773
 21
1946.011589440028
 31
0.0
  0
LINE
  5
116
330
2
100
AcDbEntity
  8
LOCKABLE DOWEL SLEEVE
100
AcDbLine
 10
-127.8157996400928
 20
1953.957180086918
 30
0.0
 11
-123.8157996400928
 21
1953.957180086918
 31
0.0
  0
LINE
  5
117
330
2
100
AcDbEntity
  8
LOCKABLE DOWEL SLEEVE
100
AcDbLine
 10
-123.8157996400928
 20
1926.647277615621
 30
0.0
 11
-121.1257021113904
 21
1923.957180086918
 31
0.0
  0
LINE
  5
118
330
2
100
AcDbEntity
  8
LOCKABLE DOWEL SLEEVE
  6
CENTER2
100
AcDbLine
 10
-133.732620259881
 20
1861.902770733809
 30
0.0
 11
-117.9405696263773
 21
1861.902770733809
 31
0.0
  0
LINE
  5
119
330
2
100
AcDbEntity
  8
LOCKABLE DOWEL SLEEVE
100
AcDbLine
 10
-123.8157996400928
 20
1881.267082558216
 30
0.0
 11
-121.1257021113904
 21
1883.957180086918
 31
0.0
  0
HATCH
  5
11A
330
2
100
AcDbEntity
  8
LOCKABLE DOWEL SLEEVE
100
AcDbHatch
 10
0.0
 20
0.0
 30
0.0
210
0.0
220
0.0
230
1.0
  2
ANSI31
 70
     0
 71
     0
 91
        2
 92
        7
 72
     0
 73
     1
 93
        3
 10
-123.8157996400928
 20
1926.647277615621
 10
-123.8157996400928
 20
1923.957180086918
 10
-121.1257021113903
 20
1923.957180086918
 97
        0
 92
        7
 72
     0
 73
     1
 93
        3
 10
-121.1257021113903
 20
1883.957180086918
 10
-123.8157996400928
 20
1883.957180086918
 10
-123.8157996400928
 20
1881.267082558216
 97
        0
 75
     0
 76
     1
 52
0.0
 41
0.1
 77
     0
 78
     1
 53
45.0
 43
-410.0800501830282
 44
1768.568622228608
 45
-0.0088388347648318
 46
0.0088388347648318
 79
     0
 47
0.114135182764989
 98
        2
 10
-122.7337301595647
 20
1924.762647798743
 10
-122.6195048399599
 20
1883.331576064435
  0
ARC
  5
11B
330
2
100
AcDbEntity
  8
LOCKABLE DOWEL SLEEVE
  6
HIDDEN1_01
 62
     1
100
AcDbCircle
 10
-47.86272822116575
 20
1903.957180086918
 30
0.0
 40
1.5
100
AcDbArc
 50
238.3881131426498
 51
256.4619414873762
  0
ARC
  5
11C
330
2
100
AcDbEntity
  8
LOCKABLE DOWEL SLEEVE
  6
HIDDEN1_01
 62
     1
100
AcDbCircle
 10
-47.86272822116575
 20
1903.957180086918
 30
0.0
 40
1.5
100
AcDbArc
 50
193.5380585126236
 51
211.3119961174086
  0
ARC
  5
11D
330
2
100
AcDbEntity
  8
LOCKABLE DOWEL SLEEVE
  6
HIDDEN1_01
 62
     1
100
AcDbCircle
 10
-47.86272822116575
 20
1903.957180086918
 30
0.0
 40
1.5
100
AcDbArc
 50
148.3881131426483
 51
166.4619414873764
  0
ARC
  5
11E
330
2
100
AcDbEntity
  8
LOCKABLE DOWEL SLEEVE
  6
HIDDEN1_01
 62
     1
100
AcDbCircle
 10
-47.86272822116575
 20
1903.957180086918
 30
0.0
 40
1.5
100
AcDbArc
 50
103.5380585126237
 51
121.3119961174065
  0
ARC
  5
11F
330
2
100
AcDbEntity
  8
LOCKABLE DOWEL SLEEVE
  6
HIDDEN1_01
 62
     1
100
AcDbCircle
 10
-47.86272822116575
 20
1903.957180086918
 30
0.0
 40
1.5
100
AcDbArc
 50
58.38811314264979
 51
76.46194148737622
  0
ARC
  5
120
330
2
100
AcDbEntity
  8
LOCKABLE DOWEL SLEEVE
  6
HIDDEN1_01
 62
     1
100
AcDbCircle
 10
-47.86272822116575
 20
1903.957180086918
 30
0.0
 40
1.5
100
AcDbArc
 50
13.53805851262359
 51
31.31199611740865
  0
ARC
  5
121
330
2
100
AcDbEntity
  8
LOCKABLE DOWEL SLEEVE
  6
HIDDEN1_01
 62
     1
100
AcDbCircle
 10
-47.86272822116575
 20
1903.957180086918
 30
0.0
 40
1.5
100
AcDbArc
 50
328.388113142656
 51
346.4619414873764
  0
ARC
  5
122
330
2
100
AcDbEntity
  8
LOCKABLE DOWEL SLEEVE
  6
HIDDEN1_01
 62
     1
100
AcDbCircle
 10
-47.86272822116575
 20
1903.957180086918
 30
0.0
 40
1.5
100
AcDbArc
 50
283.5380585126237
 51
301.3119961174065
  0
LINE
  5
123
330
2
100
AcDbEntity
  8
LOCKABLE DOWEL SLEEVE
  6
HIDDEN2
 62
     1
100
AcDbLine
 10
-123.8157996400928
 20
1923.957180086918
 30
0.0
 11
-127.8157996400928
 21
1923.957180086918
 31
0.0
  0
LINE
  5
125
330
2
100
AcDbEntity
  8
LOCKABLE DOWEL SLEEVE
  6
HIDDEN2
 62
     1
100
AcDbLine
 10
-123.8157996400928
 20
1883.957180086918
 30
0.0
 11
-127.8157996400928
 21
1883.957180086918
 31
0.0
  0
LINE
  5
126
330
2
100
AcDbEntity
  8
LOCKABLE DOWEL DOWEL COMPONENT
  6
HIDDEN1_01
100
AcDbLine
 10
-188.565799640093
 20
1915.457180086918
 30
0.0
 11
-188.5657996400925
 21
1892.457180086919
 31
0.0
  0
LINE
  5
127
330
2
100
AcDbEntity
  8
LOCKABLE DOWEL DOWEL COMPONENT
  6
HIDDEN1_01
100
AcDbLine
 10
-188.5657996400925
 20
1892.457180086918
 30
0.0
 11
-185.0657996400926
 21
1888.957180086918
 31
0.0
  0
LINE
  5
128
330
2
100
AcDbEntity
  8
LOCKABLE DOWEL DOWEL COMPONENT
  6
HIDDEN1_01
100
AcDbLine
 10
-188.5657996400925
 20
1915.457180086918
 30
0.0
 11
-185.0657996400926
 21
1918.957180086918
 31
0.0
  0
LINE
  5
129
330
2
100
AcDbEntity
  8
LOCKABLE DOWEL DOWEL COMPONENT
  6
HIDDEN1_01
100
AcDbLine
 10
-185.0657996400926
 20
1918.957180086918
 30
0.0
 11
-160.3157996400928
 21
1918.957180086918
 31
0.0
  0
LINE
  5
12A
330
2
100
AcDbEntity
  8
LOCKABLE DOWEL DOWEL COMPONENT
100
AcDbLine
 10
-160.3157996400928
 20
1918.957180086918
 30
0.0
 11
-156.565799640093
 21
1918.957180086918
 31
0.0
  0
LINE
  5
12B
330
2
100
AcDbEntity
  8
LOCKABLE DOWEL DOWEL COMPONENT
  6
HIDDEN1_01
100
AcDbLine
 10
-185.0657996400926
 20
1888.957180086918
 30
0.0
 11
-160.3157996400928
 21
1888.957180086918
 31
0.0
  0
LINE
  5
12C
330
2
100
AcDbEntity
  8
LOCKABLE DOWEL DOWEL COMPONENT
100
AcDbLine
 10
-160.3157996400928
 20
1888.957180086918
 30
0.0
 11
-156.565799640093
 21
1888.957180086918
 31
0.0
  0
LINE
  5
12D
330
2
100
AcDbEntity
  8
LOCKABLE DOWEL DOWEL COMPONENT
100
AcDbLine
 10
-156.565799640093
 20
1888.957180086918
 30
0.0
 11
-156.565799640093
 21
1918.957180086918
 31
0.0
  0
LINE
  5
12E
330
2
100
AcDbEntity
  8
LOCKABLE DOWEL FORMER
  6
Continuous
370
    15
100
AcDbLine
 10
117.1842003599072
 20
1884.65393344324
 30
0.0
 11
123.039018376468
 21
2052.313985090848
 31
0.0
  0
ARC
  5
130
330
2
100
AcDbEntity
  8
LOCKABLE DOWEL FORMER
  6
Continuous
370
    15
100
AcDbCircle
 10
114.6857232923596
 20
1884.741182184996
 30
0.0
 40
2.499999999999984
100
AcDbArc
 50
270.499999999998
 51
357.9999999999051
  0
LINE
  5
131
330
2
100
AcDbEntity
  8
LOCKABLE DOWEL FORMER
  6
Continuous
370
    15
100
AcDbLine
 10
48.99811307736104
 20
1881.667839899195
 30
0.0
 11
114.7075396311054
 21
1882.241277377336
 31
0.0
  0
LINE
  5
132
330
2
100
AcDbEntity
  8
LOCKABLE DOWEL FORMER
  6
Continuous
370
    15
100
AcDbLine
 10
-1.960981623532006
 20
1882.112553181386
 30
0.0
 11
48.99811307736104
 21
1881.667839899195
 31
0.0
  0
LINE
  5
133
330
2
100
AcDbEntity
  8
LOCKABLE DOWEL FORMER
  6
Continuous
370
    15
100
AcDbLine
 10
-1.960981623532006
 20
1925.813985090848
 30
0.0
 11
-1.960981623532006
 21
1882.112553181386
 31
0.0
  0
LINE
  5
134
330
2
100
AcDbEntity
  8
LOCKABLE DOWEL FORMER
  6
Continuous
370
    15
100
AcDbLine
 10
45.90170594102028
 20
1926.231676437334
 30
0.0
 11
-1.960981623532006
 21
1925.813985090848
 31
0.0
  0
ARC
  5
135
330
2
100
AcDbEntity
  8
LOCKABLE DOWEL FORMER
  6
Continuous
370
    15
100
AcDbCircle
 10
45.88861613777271
 20
1927.731619321931
 30
0.0
 40
1.499999999999998
100
AcDbArc
 50
270.5000000000013
 51
2.00000000000365
  0
LINE
  5
136
330
2
100
AcDbEntity
  8
LOCKABLE DOWEL FORMER
  6
Continuous
370
    15
100
AcDbLine
 10
47.38770237830135
 20
1927.783968566984
 30
0.0
 11
43.03901837646776
 21
2052.313985090848
 31
0.0
  0
LINE
  5
137
330
2
100
AcDbEntity
  8
LOCKABLE DOWEL FORMER
  6
Continuous
370
    15
100
AcDbLine
 10
126.2954758807661
 20
2052.313985090848
 30
0.0
 11
39.80000264707292
 21
2052.313985090848
 31
0.0
  0
LINE
  5
138
330
2
100
AcDbEntity
  8
LOCKABLE DOWEL FORMER
  6
Continuous
370
    15
100
AcDbLine
 10
39.82649453290196
 20
2053.831437497285
 30
0.0
 11
39.80000264707292
 21
2052.313985090848
 31
0.0
  0
ELLIPSE
  5
139
330
2
100
AcDbEntity
  8
LOCKABLE DOWEL FORMER
  6
Continuous
370
    15
100
AcDbEllipse
 10
40.8265179670916
 20
2053.813985090848
 30
0.0
 11
1.000175765803192
 21
0.0
 31
-0.0000000000000036
210
0.0000000000000036
220
0.0
230
1.0
 40
0.9998242650849963
 41
1.570796326794896
 42
3.124139361069846
  0
LINE
  5
13A
330
2
100
AcDbEntity
  8
LOCKABLE DOWEL FORMER
  6
Continuous
370
    15
100
AcDbLine
 10
125.2689605607474
 20
2054.813985090849
 30
0.0
 11
40.8265179670916
 21
2054.813985090849
 31
0.0
  0
ELLIPSE
  5
13B
330
2
100
AcDbEntity
  8
LOCKABLE DOWEL FORMER
  6
Continuous
370
    15
100
AcDbEllipse
 10
125.2689605607474
 20
2053.813985090848
 30
0.0
 11
1.000175765803192
 21
0.0
 31
-0.0000000000000036
210
0.0000000000000036
220
0.0
230
1.0
 40
0.9998242650849963
 41
0.0174532925199451
 42
1.570796326794896
  0
LINE
  5
13C
330
2
100
AcDbEntity
  8
LOCKABLE DOWEL FORMER
  6
Continuous
370
    15
100
AcDbLine
 10
126.2954758807661
 20
2052.313985090848
 30
0.0
 11
126.2689839949371
 21
2053.831437497285
 31
0.0
  0
LINE
  5
13D
330
2
100
AcDbEntity
  8
LOCKABLE DOWEL SLEEVE
  6
CENTER2
100
AcDbLine
 10
314.859426905186
 20
1931.154324865225
 30
0.0
 11
314.859426905186
 21
1876.760035308611
 31
0.0
  0
CIRCLE
  5
13E
330
2
100
AcDbEntity
  8
LOCKABLE DOWEL SLEEVE
100
AcDbCircle
 10
314.859426905186
 20
1921.547220296512
 30
0.0
 40
0.4112911480472038
  0
INSERT
  5
13F
330
2
100
AcDbEntity
  8
LOCKABLE DOWEL SLEEVE
100
AcDbBlockReference
  2
*X0
 10
118.9607081487684
 20
1773.645987715094
 30
0.0
1001
ACAD
1000
HATCH
1002
{
1070
    16
1000
ANSI31
1040
0.02
1040
0.0
1002
}
  0
LINE
  5
162
330
2
100
AcDbEntity
  8
LOCKABLE DOWEL SLEEVE
  6
Continuous
100
AcDbLine
 10
274.859426905186
 20
1883.957180086918
 30
0.0
 11
354.8594269051859
 21
1883.957180086918
 31
0.0
  0
LINE
  5
163
330
2
100
AcDbEntity
  8
LOCKABLE DOWEL SLEEVE
  6
Continuous
100
AcDbLine
 10
274.859426905186
 20
1923.957180086918
 30
0.0
 11
354.8594269051859
 21
1923.957180086918
 31
0.0
  0
LINE
  5
164
330
2
100
AcDbEntity
  8
LOCKABLE DOWEL SLEEVE
100
AcDbLine
 10
259.859426905186
 20
1853.957180086918
 30
0.0
 11
369.859426905186
 21
1853.957180086918
 31
0.0
  0
LINE
  5
165
330
2
100
AcDbEntity
  8
LOCKABLE DOWEL SLEEVE
100
AcDbLine
 10
259.859426905186
 20
1953.957180086918
 30
0.0
 11
369.859426905186
 21
1953.957180086918
 31
0.0
  0
LINE
  5
166
330
2
100
AcDbEntity
  8
LOCKABLE DOWEL SLEEVE
  6
Continuous
100
AcDbLine
 10
274.859426905186
 20
1923.957180086918
 30
0.0
 11
274.859426905186
 21
1883.957180086918
 31
0.0
  0
LINE
  5
167
330
2
100
AcDbEntity
  8
LOCKABLE DOWEL SLEEVE
100
AcDbLine
 10
259.859426905186
 20
1953.957180086918
 30
0.0
 11
259.859426905186
 21
1853.957180086918
 31
0.0
  0
CIRCLE
  5
168
330
2
100
AcDbEntity
  8
LOCKABLE DOWEL SLEEVE
100
AcDbCircle
 10
267.859426905186
 20
1861.957180086918
 30
0.0
 40
2.5
  0
CIRCLE
  5
169
330
2
100
AcDbEntity
  8
LOCKABLE DOWEL SLEEVE
100
AcDbCircle
 10
267.859426905186
 20
1945.957180086918
 30
0.0
 40
2.5
  0
LINE
  5
16A
330
2
100
AcDbEntity
  8
LOCKABLE DOWEL SLEEVE
  6
CENTER2
100
AcDbLine
 10
267.859426905186
 20
1952.614483458406
 30
0.0
 11
267.859426905186
 21
1939.408695421649
 31
0.0
  0
LINE
  5
16B
330
2
100
AcDbEntity
  8
LOCKABLE DOWEL SLEEVE
  6
Continuous
100
AcDbLine
 10
354.8594269051859
 20
1923.957180086918
 30
0.0
 11
354.8594269051859
 21
1883.957180086918
 31
0.0
  0
LINE
  5
16C
330
2
100
AcDbEntity
  8
LOCKABLE DOWEL SLEEVE
100
AcDbLine
 10
369.859426905186
 20
1953.957180086918
 30
0.0
 11
369.859426905186
 21
1853.957180086918
 31
0.0
  0
CIRCLE
  5
16D
330
2
100
AcDbEntity
  8
LOCKABLE DOWEL SLEEVE
100
AcDbCircle
 10
361.859426905186
 20
1861.957180086918
 30
0.0
 40
2.5
  0
CIRCLE
  5
16E
330
2
100
AcDbEntity
  8
LOCKABLE DOWEL SLEEVE
100
AcDbCircle
 10
361.859426905186
 20
1945.957180086918
 30
0.0
 40
2.5
  0
LINE
  5
16F
330
2
100
AcDbEntity
  8
LOCKABLE DOWEL SLEEVE
  6
CENTER2
100
AcDbLine
 10
261.2565328868072
 20
1946.011589440028
 30
0.0
 11
274.4623209235647
 21
1946.011589440028
 31
0.0
  0
LINE
  5
170
330
2
100
AcDbEntity
  8
LOCKABLE DOWEL SLEEVE
  6
Continuous
100
AcDbLine
 10
276.697956285762
 20
1921.957180086918
 30
0.0
 11
276.697956285762
 21
1885.957180086918
 31
0.0
  0
LINE
  5
171
330
2
100
AcDbEntity
  8
LOCKABLE DOWEL SLEEVE
  6
Continuous
100
AcDbLine
 10
352.6979562857619
 20
1921.957180086918
 30
0.0
 11
352.6979562857619
 21
1885.957180086918
 31
0.0
  0
LINE
  5
172
330
2
100
AcDbEntity
  8
LOCKABLE DOWEL SLEEVE
  6
Continuous
100
AcDbLine
 10
274.697956285762
 20
1923.957180086918
 30
0.0
 11
274.697956285762
 21
1883.957180086918
 31
0.0
  0
LINE
  5
173
330
2
100
AcDbEntity
  8
LOCKABLE DOWEL SLEEVE
  6
Continuous
100
AcDbLine
 10
354.6979562857619
 20
1923.957180086918
 30
0.0
 11
354.6979562857619
 21
1883.957180086918
 31
0.0
  0
LINE
  5
174
330
2
100
AcDbEntity
  8
LOCKABLE DOWEL SLEEVE
  6
Continuous
100
AcDbLine
 10
276.697956285762
 20
1885.957180086918
 30
0.0
 11
352.6979562857619
 21
1885.957180086918
 31
0.0
  0
LINE
  5
175
330
2
100
AcDbEntity
  8
LOCKABLE DOWEL SLEEVE
  6
Continuous
100
AcDbLine
 10
274.697956285762
 20
1883.957180086918
 30
0.0
 11
354.6979562857619
 21
1883.957180086918
 31
0.0
  0
LINE
  5
176
330
2
100
AcDbEntity
  8
LOCKABLE DOWEL SLEEVE
  6
CENTER2
100
AcDbLine
 10
282.0104821160178
 20
1903.957180086918
 30
0.0
 11
347.7083716943541
 21
1903.957180086918
 31
0.0
  0
LINE
  5
177
330
2
100
AcDbEntity
  8
LOCKABLE DOWEL SLEEVE
  6
Continuous
100
AcDbLine
 10
276.697956285762
 20
1921.957180086918
 30
0.0
 11
352.6979562857619
 21
1921.957180086918
 31
0.0
  0
LINE
  5
178
330
2
100
AcDbEntity
  8
LOCKABLE DOWEL SLEEVE
  6
Continuous
100
AcDbLine
 10
274.697956285762
 20
1923.957180086918
 30
0.0
 11
354.6979562857619
 21
1923.957180086918
 31
0.0
  0
CIRCLE
  5
179
330
2
100
AcDbEntity
  8
LOCKABLE DOWEL SLEEVE
100
AcDbCircle
 10
314.859426905186
 20
1903.957180086918
 30
0.0
 40
17.59004020959437
  0
CIRCLE
  5
17A
330
2
100
AcDbEntity
  8
LOCKABLE DOWEL SLEEVE
100
AcDbCircle
 10
314.859426905186
 20
1903.957180086918
 30
0.0
 40
15.69907307306174
  0
LINE
  5
17B
330
2
100
AcDbEntity
  8
LOCKABLE DOWEL SLEEVE
  6
CENTER2
100
AcDbLine
 10
361.859426905186
 20
1952.614483458406
 30
0.0
 11
361.859426905186
 21
1939.408695421649
 31
0.0
  0
LINE
  5
17C
330
2
100
AcDbEntity
  8
LOCKABLE DOWEL SLEEVE
  6
CENTER2
100
AcDbLine
 10
368.4623209235647
 20
1946.011589440028
 30
0.0
 11
355.2565328868072
 21
1946.011589440028
 31
0.0
  0
LINE
  5
17D
330
2
100
AcDbEntity
  8
LOCKABLE DOWEL SLEEVE
  6
CENTER2
100
AcDbLine
 10
267.859426905186
 20
1855.29987671543
 30
0.0
 11
267.859426905186
 21
1868.505664752187
 31
0.0
  0
LINE
  5
17E
330
2
100
AcDbEntity
  8
LOCKABLE DOWEL SLEEVE
  6
CENTER2
100
AcDbLine
 10
261.2565328868072
 20
1861.902770733809
 30
0.0
 11
274.4623209235647
 21
1861.902770733809
 31
0.0
  0
LINE
  5
17F
330
2
100
AcDbEntity
  8
LOCKABLE DOWEL SLEEVE
  6
CENTER2
100
AcDbLine
 10
361.859426905186
 20
1855.29987671543
 30
0.0
 11
361.859426905186
 21
1868.505664752187
 31
0.0
  0
LINE
  5
180
330
2
100
AcDbEntity
  8
LOCKABLE DOWEL SLEEVE
  6
CENTER2
100
AcDbLine
 10
368.4623209235647
 20
1861.902770733809
 30
0.0
 11
355.2565328868072
 21
1861.902770733809
 31
0.0
  0
LINE
  5
181
330
2
100
AcDbEntity
  8
LOCKABLE DOWEL FORMER
  6
Continuous
370
    15
100
AcDbLine
 10
271.1278965932566
 20
1953.957180086918
 30
0.0
 11
271.0082697526066
 21
2052.145087627099
 31
0.0
  0
LINE
  5
182
330
2
100
AcDbEntity
  8
LOCKABLE DOWEL FORMER
  6
Continuous
370
     0
100
AcDbLine
 10
358.7105840577653
 20
2052.145087627099
 30
0.0
 11
358.5909572171154
 21
1953.957180086918
 31
0.0
  0
LINE
  5
183
330
2
100
AcDbEntity
  8
LOCKABLE DOWEL LOCKING PLATE
  6
HIDDEN1_01
100
AcDbLine
 10
324.859426905186
 20
1903.957180086918
 30
0.0
 11
324.859426905186
 21
1891.957180086918
 31
0.0
  0
ARC
  5
185
330
2
100
AcDbEntity
  8
LOCKABLE DOWEL LOCKING PLATE
  6
HIDDEN1_01
100
AcDbCircle
 10
314.859426905186
 20
1903.957180086918
 30
0.0
 40
115.0
100
AcDbArc
 50
74.03809125310648
 51
105.9619087468935
  0
ARC
  5
186
330
2
100
AcDbEntity
  8
LOCKABLE DOWEL LOCKING PLATE
  6
HIDDEN1_01
100
AcDbCircle
 10
345.109232324106
 20
2009.71610061903
 30
0.0
 40
5.0
100
AcDbArc
 50
349.2024518559272
 51
74.03809125310648
  0
ARC
  5
187
330
2
100
AcDbEntity
  8
LOCKABLE DOWEL LOCKING PLATE
  6
HIDDEN1_01
100
AcDbCircle
 10
284.6096214862657
 20
2009.71610061903
 30
0.0
 40
5.0
100
AcDbArc
 50
105.9619087468935
 51
190.7975481440727
  0
ARC
  5
188
330
2
100
AcDbEntity
  8
LOCKABLE DOWEL LOCKING PLATE
  6
HIDDEN1_01
100
AcDbCircle
 10
326.859426905186
 20
1891.957180086918
 30
0.0
 40
2.0
100
AcDbArc
 50
180.0
 51
351.7962735766336
  0
LINE
  5
189
330
2
100
AcDbEntity
  8
LOCKABLE DOWEL LOCKING PLATE
  6
HIDDEN1_01
100
AcDbLine
 10
328.8174842319061
 20
1891.549734992117
 30
0.0
 11
350.0207086662567
 21
2008.779404221848
 31
0.0
  0
LINE
  5
18A
330
2
100
AcDbEntity
  8
LOCKABLE DOWEL LOCKING PLATE
  6
HIDDEN1_01
100
AcDbLine
 10
304.8594269051859
 20
1903.957180086918
 30
0.0
 11
304.8594269051859
 21
1891.957180086918
 31
0.0
  0
ARC
  5
18B
330
2
100
AcDbEntity
  8
LOCKABLE DOWEL LOCKING PLATE
  6
HIDDEN1_01
100
AcDbCircle
 10
302.8594269051859
 20
1891.957180086918
 30
0.0
 40
2.0
100
AcDbArc
 50
188.2037264233664
 51
0.0
  0
LINE
  5
18C
330
2
100
AcDbEntity
  8
LOCKABLE DOWEL LOCKING PLATE
  6
HIDDEN1_01
100
AcDbLine
 10
300.9013695784656
 20
1891.549734992117
 30
0.0
 11
279.6981451441149
 21
2008.779404221848
 31
0.0
  0
ARC
  5
18D
330
2
100
AcDbEntity
  8
LOCKABLE DOWEL LOCKING PLATE
  6
HIDDEN1_01
100
AcDbCircle
 10
314.859426905186
 20
1903.957180086918
 30
0.0
 40
10.0
100
AcDbArc
 50
0.0
 51
180.0
  0
LINE
  5
18E
330
2
100
AcDbEntity
  8
LOCKABLE DOWEL SLEEVE
  6
HIDDEN1_01
100
AcDbLine
 10
43.73556809622323
 20
2032.313985090849
 30
0.0
 11
122.340602986633
 21
2032.313985090849
 31
0.0
  0
LINE
  5
18F
330
2
100
AcDbEntity
  8
LOCKABLE DOWEL SLEEVE
  6
HIDDEN1_01
100
AcDbLine
 10
73.03420035990734
 20
2018.957180086919
 30
0.0
 11
78.03420035990734
 21
2018.957180086919
 31
0.0
  0
LINE
  5
190
330
2
100
AcDbEntity
  8
LOCKABLE DOWEL SLEEVE
  6
HIDDEN1_01
100
AcDbLine
 10
78.03420035990734
 20
2018.957180086919
 30
0.0
 11
78.03420035990734
 21
1889.957180086918
 31
0.0
  0
LINE
  5
191
330
2
100
AcDbEntity
  8
LOCKABLE DOWEL SLEEVE
  6
HIDDEN1_01
100
AcDbLine
 10
73.03420035990734
 20
2018.957180086919
 30
0.0
 11
73.03420035990734
 21
1889.957180086918
 31
0.0
  0
LINE
  5
192
330
2
100
AcDbEntity
  8
LOCKABLE DOWEL SLEEVE
  6
HIDDEN1_01
100
AcDbLine
 10
73.03420035990734
 20
1889.957180086918
 30
0.0
 11
78.03420035990734
 21
1889.957180086918
 31
0.0
  0
LINE
  5
193
330
2
100
AcDbEntity
  8
LOCKABLE DOWEL FORMER
  6
Continuous
370
    15
100
AcDbLine
 10
267.7957459090409
 20
2053.662540033536
 30
0.0
 11
267.7692540232117
 21
2052.145087627099
 31
0.0
  0
ELLIPSE
  5
194
330
2
100
AcDbEntity
  8
LOCKABLE DOWEL FORMER
  6
Continuous
370
    15
100
AcDbEllipse
 10
268.7957693432304
 20
2053.645087627099
 30
0.0
 11
1.000175765803192
 21
0.0
 31
-0.0000000000000036
210
0.0000000000000036
220
0.0
230
1.0
 40
0.9998242650849963
 41
1.570796326794896
 42
3.124139361069846
  0
ELLIPSE
  5
195
330
2
100
AcDbEntity
  8
LOCKABLE DOWEL FORMER
  6
Continuous
370
    15
100
AcDbEllipse
 10
360.9398462389258
 20
2053.645087627099
 30
0.0
 11
1.000175765803192
 21
0.0
 31
-0.0000000000000036
210
0.0000000000000036
220
0.0
230
1.0
 40
0.9998242650849963
 41
0.0174532925199451
 42
1.570796326794896
  0
LINE
  5
196
330
2
100
AcDbEntity
  8
LOCKABLE DOWEL FORMER
  6
Continuous
370
    15
100
AcDbLine
 10
361.9663615589445
 20
2052.145087627099
 30
0.0
 11
361.9398696731155
 21
2053.662540033536
 31
0.0
  0
LINE
  5
197
330
2
100
AcDbEntity
  8
HATCH
100
AcDbLine
 10
268.7957693432304
 20
2054.645087627099
 30
0.0
 11
360.9398462389258
 21
2054.645087627099
 31
0.0
  0
LINE
  5
19B
330
2
100
AcDbEntity
  8
HATCH
100
AcDbLine
 10
267.7692540232117
 20
2052.145087627099
 30
0.0
 11
361.9663615589445
 21
2052.145087627099
 31
0.0
  0
LINE
  5
19C
330
2
100
AcDbEntity
  8
LOCKABLE DOWEL SLEEVE
  6
HIDDEN1_01
100
AcDbLine
 10
271.0324308962999
 20
2032.313985090849
 30
0.0
 11
358.6864229140721
 21
2032.313985090849
 31
0.0
  0
MTEXT
  5
19D
330
2
100
AcDbEntity
  8
SPECP
 62
     6
100
AcDbMText
 10
-265.1853826981983
 20
1812.765218049041
 30
0.0
 40
5.0
 41
2822.017960969965
 71
     1
 72
     5
  1
{\H2x;ESDQ-L20W}
  7
ROMANS
 73
     1
 44
1.0
  0
LINE
  5
19F
330
2
100
AcDbEntity
  8
LOCKABLE DOWEL FORMER
100
AcDbLine
 10
126.2908719299646
 20
1761.644823690535
 30
0.0
 11
39.79539869627142
 21
1761.644823690535
 31
0.0
  0
LINE
  5
1A0
330
2
100
AcDbEntity
  8
LOCKABLE DOWEL FORMER
100
AcDbLine
 10
126.2908719299646
 20
1667.447683799824
 30
0.0
 11
39.79539869627142
 21
1667.447683799824
 31
0.0
  0
LINE
  5
1A1
330
2
100
AcDbEntity
  8
LOCKABLE DOWEL FORMER
100
AcDbLine
 10
39.79539869627142
 20
1761.644823690535
 30
0.0
 11
39.79539869627142
 21
1667.447683799824
 31
0.0
  0
LINE
  5
1A2
330
2
100
AcDbEntity
  8
LOCKABLE DOWEL FORMER
100
AcDbLine
 10
126.2908719299646
 20
1761.644823690535
 30
0.0
 11
126.2908719299646
 21
1667.447683799824
 31
0.0
  0
LINE
  5
1A3
330
2
100
AcDbEntity
  8
LOCKABLE DOWEL FORMER
100
AcDbLine
 10
-1.965585574333502
 20
1758.310482948617
 30
0.0
 11
-1.965585574333502
 21
1670.798818668504
 31
0.0
  0
LINE
  5
1A4
330
2
100
AcDbEntity
  8
LOCKABLE DOWEL FORMER
100
AcDbLine
 10
39.79539869627142
 20
1758.310482948617
 30
0.0
 11
-1.965585574333502
 21
1758.310482948617
 31
0.0
  0
LINE
  5
1A5
330
2
100
AcDbEntity
  8
LOCKABLE DOWEL FORMER
100
AcDbLine
 10
39.79539869627142
 20
1670.798818668504
 30
0.0
 11
-1.965585574333502
 21
1670.798818668504
 31
0.0
  0
LINE
  5
1A6
330
2
100
AcDbEntity
  8
GRID
100
AcDbLine
 10
145.8992247484491
 20
1714.54625374518
 30
0.0
 11
-363.4092549051202
 21
1714.54625374518
 31
0.0
  0
LINE
  5
1A7
330
2
100
AcDbEntity
  8
LOCKABLE DOWEL SLEEVE
100
AcDbLine
 10
-127.8157996400928
 20
1768.157544826939
 30
0.0
 11
-127.8157996400928
 21
1659.55465080856
 31
0.0
  0
LINE
  5
1A8
330
2
100
AcDbEntity
  8
LOCKABLE DOWEL SLEEVE
100
AcDbLine
 10
-123.8157996400927
 20
1768.157544826939
 30
0.0
 11
-123.8157996400928
 21
1659.55465080856
 31
0.0
  0
LINE
  5
1A9
330
2
100
AcDbEntity
  8
LOCKABLE DOWEL SLEEVE
100
AcDbLine
 10
-1.965585574333502
 20
1754.716121427984
 30
0.0
 11
-123.8157996400927
 21
1754.716121427984
 31
0.0
  0
LINE
  5
1AA
330
2
100
AcDbEntity
  8
LOCKABLE DOWEL SLEEVE
100
AcDbLine
 10
-1.965585574333502
 20
1674.55465080856
 30
0.0
 11
-123.8157996400927
 21
1674.55465080856
 31
0.0
  0
LINE
  5
1AB
330
2
100
AcDbEntity
  8
LOCKABLE DOWEL SLEEVE
100
AcDbLine
 10
-123.8157996400928
 20
1768.157544826939
 30
0.0
 11
-127.8157996400927
 21
1768.157544826939
 31
0.0
  0
LINE
  5
1AC
330
2
100
AcDbEntity
  8
LOCKABLE DOWEL SLEEVE
100
AcDbLine
 10
-123.8157996400928
 20
1659.55465080856
 30
0.0
 11
-127.8157996400928
 21
1659.55465080856
 31
0.0
  0
LINE
  5
1AD
330
2
100
AcDbEntity
  8
LOCKABLE DOWEL SLEEVE
  6
CENTER2
100
AcDbLine
 10
-118.9070136005489
 20
1761.554650808561
 30
0.0
 11
-132.1128016373063
 21
1761.554650808561
 31
0.0
  0
LINE
  5
1AE
330
2
100
AcDbEntity
  8
LOCKABLE DOWEL SLEEVE
  6
CENTER2
100
AcDbLine
 10
-118.9070136005489
 20
1667.554650808561
 30
0.0
 11
-132.1128016373063
 21
1667.554650808561
 31
0.0
  0
LINE
  5
1AF
330
2
100
AcDbEntity
  8
LOCKABLE DOWEL DOWEL COMPONENT
100
AcDbLine
 10
-322.8157996400928
 20
1771.663816954664
 30
0.0
 11
-322.8157996400928
 21
1657.428690535695
 31
0.0
  0
LINE
  5
1B0
330
2
100
AcDbEntity
  8
LOCKABLE DOWEL DOWEL COMPONENT
100
AcDbLine
 10
-321.5657996400928
 20
1656.178690535695
 30
0.0
 11
-314.0657996400926
 21
1656.178690535695
 31
0.0
  0
LINE
  5
1B1
330
2
100
AcDbEntity
  8
LOCKABLE DOWEL DOWEL COMPONENT
100
AcDbLine
 10
-312.8157996400926
 20
1657.428690535695
 30
0.0
 11
-312.8157996400928
 21
1771.663816954664
 31
0.0
  0
LINE
  5
1B2
330
2
100
AcDbEntity
  8
LOCKABLE DOWEL DOWEL COMPONENT
100
AcDbLine
 10
-314.0657996400928
 20
1772.913816954664
 30
0.0
 11
-321.5657996400928
 21
1772.913816954664
 31
0.0
  0
LINE
  5
1B3
330
2
100
AcDbEntity
  8
LOCKABLE DOWEL DOWEL COMPONENT
100
AcDbLine
 10
-310.7305990142249
 20
1768.44208978184
 30
0.0
 11
-292.0447683324553
 21
1736.711435263652
 31
0.0
  0
LINE
  5
1B4
330
2
100
AcDbEntity
  8
LOCKABLE DOWEL DOWEL COMPONENT
100
AcDbLine
 10
-310.7305990142249
 20
1660.650417708519
 30
0.0
 11
-292.0447683324553
 21
1692.381072226707
 31
0.0
  0
LINE
  5
1B5
330
2
100
AcDbEntity
  8
LOCKABLE DOWEL DOWEL COMPONENT
100
AcDbLine
 10
-288.6461141310676
 20
1734.54625374518
 30
0.0
 11
-160.3157996400928
 21
1734.54625374518
 31
0.0
  0
LINE
  5
1B6
330
2
100
AcDbEntity
  8
LOCKABLE DOWEL DOWEL COMPONENT
100
AcDbLine
 10
-288.6461141310676
 20
1694.546253745179
 30
0.0
 11
-160.3157996400928
 21
1694.546253745179
 31
0.0
  0
LINE
  5
1B7
330
2
100
AcDbEntity
  8
LOCKABLE DOWEL DOWEL COMPONENT
100
AcDbLine
 10
-160.3157996400928
 20
1734.54625374518
 30
0.0
 11
-160.3157996400928
 21
1694.546253745179
 31
0.0
  0
ARC
  5
1B8
330
2
100
AcDbEntity
  8
LOCKABLE DOWEL DOWEL COMPONENT
100
AcDbCircle
 10
-288.6461141310676
 20
1738.296253745179
 30
0.0
 40
3.749999999999999
100
AcDbArc
 50
204.9999999999925
 51
270.0
  0
ARC
  5
1B9
330
2
100
AcDbEntity
  8
LOCKABLE DOWEL DOWEL COMPONENT
100
AcDbCircle
 10
-288.6461141310676
 20
1690.796253745179
 30
0.0
 40
3.749999999999999
100
AcDbArc
 50
90.0
 51
155.0000000000074
  0
LINE
  5
1BA
330
2
100
AcDbEntity
  8
LOCKABLE DOWEL DOWEL COMPONENT
100
AcDbLine
 10
-288.6461141310676
 20
1734.54625374518
 30
0.0
 11
-288.6461141310676
 21
1694.546253745179
 31
0.0
  0
LINE
  5
1BB
330
2
100
AcDbEntity
  8
LOCKABLE DOWEL DOWEL COMPONENT
100
AcDbLine
 10
-292.0447683324553
 20
1692.381072226707
 30
0.0
 11
-292.0447683324553
 21
1736.711435263652
 31
0.0
  0
LINE
  5
1BC
330
2
100
AcDbEntity
  8
LOCKABLE DOWEL DOWEL COMPONENT
100
AcDbLine
 10
-312.8157996400928
 20
1739.99000374518
 30
0.0
 11
-322.8157996400928
 21
1739.99000374518
 31
0.0
  0
LINE
  5
1BD
330
2
100
AcDbEntity
  8
LOCKABLE DOWEL DOWEL COMPONENT
100
AcDbLine
 10
-312.8157996400928
 20
1689.10250374518
 30
0.0
 11
-322.8157996400928
 21
1689.10250374518
 31
0.0
  0
LINE
  5
1BE
330
2
100
AcDbEntity
  8
LOCKABLE DOWEL DOWEL COMPONENT
100
AcDbLine
 10
-312.8157996400928
 20
1769.163816954664
 30
0.0
 11
-311.8634837480208
 21
1769.163816954664
 31
0.0
  0
LINE
  5
1BF
330
2
100
AcDbEntity
  8
LOCKABLE DOWEL DOWEL COMPONENT
100
AcDbLine
 10
-312.8157996400928
 20
1659.928690535695
 30
0.0
 11
-311.8634837480208
 21
1659.928690535695
 31
0.0
  0
ARC
  5
1C0
330
2
100
AcDbEntity
  8
LOCKABLE DOWEL DOWEL COMPONENT
100
AcDbCircle
 10
-311.8634837480208
 20
1661.178690535695
 30
0.0
 40
1.249999999999999
100
AcDbArc
 50
270.0
 51
335.0000000000075
  0
ARC
  5
1C1
330
2
100
AcDbEntity
  8
LOCKABLE DOWEL DOWEL COMPONENT
100
AcDbCircle
 10
-311.8634837480208
 20
1767.913816954664
 30
0.0
 40
1.249999999999999
100
AcDbArc
 50
24.99999999999252
 51
90.0
  0
ARC
  5
1C2
330
2
100
AcDbEntity
  8
LOCKABLE DOWEL DOWEL COMPONENT
100
AcDbCircle
 10
-314.0657996400928
 20
1771.663816954664
 30
0.0
 40
1.249999999999999
100
AcDbArc
 50
0.0
 51
90.0
  0
ARC
  5
1C3
330
2
100
AcDbEntity
  8
LOCKABLE DOWEL DOWEL COMPONENT
100
AcDbCircle
 10
-314.0657996400926
 20
1657.428690535695
 30
0.0
 40
1.249999999999999
100
AcDbArc
 50
270.0
 51
0.0
  0
ARC
  5
1C4
330
2
100
AcDbEntity
  8
LOCKABLE DOWEL DOWEL COMPONENT
100
AcDbCircle
 10
-321.5657996400928
 20
1657.428690535695
 30
0.0
 40
1.249999999999999
100
AcDbArc
 50
180.0
 51
270.0
  0
ARC
  5
1C5
330
2
100
AcDbEntity
  8
LOCKABLE DOWEL DOWEL COMPONENT
100
AcDbCircle
 10
-321.5657996400928
 20
1771.663816954664
 30
0.0
 40
1.249999999999999
100
AcDbArc
 50
90.0
 51
180.0
  0
LINE
  5
1C6
330
2
100
AcDbEntity
  8
LOCKABLE DOWEL DOWEL COMPONENT
100
AcDbLine
 10
-288.6461141310676
 20
1714.54625374518
 30
0.0
 11
-288.6461141310676
 21
1714.54625374518
 31
0.0
  0
LINE
  5
1C7
330
2
100
AcDbEntity
  8
LOCKABLE DOWEL DOWEL COMPONENT
  6
HIDDEN1_01
 48
0.5
100
AcDbLine
 10
32.23420035990739
 20
1704.54625374518
 30
0.0
 11
37.43420035990744
 21
1704.54625374518
 31
0.0
  0
LINE
  5
1C8
330
2
100
AcDbEntity
  8
LOCKABLE DOWEL DOWEL COMPONENT
  6
HIDDEN1_01
 48
0.5
100
AcDbLine
 10
42.43420035990744
 20
1704.54625374518
 30
0.0
 11
47.63420035990725
 21
1704.54625374518
 31
0.0
  0
LINE
  5
1C9
330
2
100
AcDbEntity
  8
LOCKABLE DOWEL DOWEL COMPONENT
  6
HIDDEN1_01
 48
0.5
100
AcDbLine
 10
52.63420035990748
 20
1704.54625374518
 30
0.0
 11
57.83420035990729
 21
1704.54625374518
 31
0.0
  0
LINE
  5
1CA
330
2
100
AcDbEntity
  8
LOCKABLE DOWEL DOWEL COMPONENT
  6
HIDDEN1_01
 48
0.5
100
AcDbLine
 10
62.83420035990729
 20
1704.54625374518
 30
0.0
 11
68.03420035990734
 21
1704.54625374518
 31
0.0
  0
LINE
  5
1CB
330
2
100
AcDbEntity
  8
LOCKABLE DOWEL DOWEL COMPONENT
  6
HIDDEN1_01
 48
0.5
100
AcDbLine
 10
73.03420035990734
 20
1704.54625374518
 30
0.0
 11
78.23420035990739
 21
1704.54625374518
 31
0.0
  0
LINE
  5
1CC
330
2
100
AcDbEntity
  8
LOCKABLE DOWEL DOWEL COMPONENT
  6
HIDDEN1_01
 48
0.5
100
AcDbLine
 10
83.23420035990739
 20
1704.54625374518
 30
0.0
 11
88.43420035990721
 21
1704.54625374518
 31
0.0
  0
LINE
  5
1CD
330
2
100
AcDbEntity
  8
LOCKABLE DOWEL DOWEL COMPONENT
  6
HIDDEN1_01
 48
0.5
100
AcDbLine
 10
32.23420035990739
 20
1724.546253745179
 30
0.0
 11
37.43420035990744
 21
1724.546253745179
 31
0.0
  0
LINE
  5
1CE
330
2
100
AcDbEntity
  8
LOCKABLE DOWEL DOWEL COMPONENT
  6
HIDDEN1_01
 48
0.5
100
AcDbLine
 10
42.43420035990744
 20
1724.546253745179
 30
0.0
 11
47.63420035990748
 21
1724.546253745179
 31
0.0
  0
LINE
  5
1CF
330
2
100
AcDbEntity
  8
LOCKABLE DOWEL DOWEL COMPONENT
  6
HIDDEN1_01
 48
0.5
100
AcDbLine
 10
52.63420035990748
 20
1724.546253745179
 30
0.0
 11
57.83420035990729
 21
1724.546253745179
 31
0.0
  0
LINE
  5
1D0
330
2
100
AcDbEntity
  8
LOCKABLE DOWEL DOWEL COMPONENT
  6
HIDDEN1_01
 48
0.5
100
AcDbLine
 10
62.83420035990729
 20
1724.546253745179
 30
0.0
 11
68.03420035990734
 21
1724.546253745179
 31
0.0
  0
LINE
  5
1D1
330
2
100
AcDbEntity
  8
LOCKABLE DOWEL DOWEL COMPONENT
  6
HIDDEN1_01
 48
0.5
100
AcDbLine
 10
73.03420035990734
 20
1724.546253745179
 30
0.0
 11
78.23420035990739
 21
1724.546253745179
 31
0.0
  0
LINE
  5
1D2
330
2
100
AcDbEntity
  8
LOCKABLE DOWEL DOWEL COMPONENT
  6
HIDDEN1_01
 48
0.5
100
AcDbLine
 10
83.23420035990739
 20
1724.546253745179
 30
0.0
 11
88.43420035990721
 21
1724.546253745179
 31
0.0
  0
LINE
  5
1D3
330
2
100
AcDbEntity
  8
LOCKABLE DOWEL DOWEL COMPONENT
 48
0.5
100
AcDbLine
 10
-156.5657996400925
 20
1699.54625374518
 30
0.0
 11
-127.8157996400928
 21
1699.54625374518
 31
0.0
  0
LINE
  5
1D4
330
2
100
AcDbEntity
  8
LOCKABLE DOWEL DOWEL COMPONENT
  6
HIDDEN1_01
 48
0.5
100
AcDbLine
 10
37.93420035990744
 20
1699.54625374518
 30
0.0
 11
38.63420035990748
 21
1699.54625374518
 31
0.0
  0
LINE
  5
1D5
330
2
100
AcDbEntity
  8
LOCKABLE DOWEL DOWEL COMPONENT
  6
HIDDEN1_01
 48
0.5
100
AcDbLine
 10
78.73420035990739
 20
1699.54625374518
 30
0.0
 11
82.73420035990739
 21
1699.54625374518
 31
0.0
  0
LINE
  5
1D6
330
2
100
AcDbEntity
  8
LOCKABLE DOWEL DOWEL COMPONENT
  6
HIDDEN1_01
 48
0.5
100
AcDbLine
 10
78.23420035990739
 20
1700.046253745179
 30
0.0
 11
78.73420035990739
 21
1699.54625374518
 31
0.0
  0
LINE
  5
1D7
330
2
100
AcDbEntity
  8
LOCKABLE DOWEL DOWEL COMPONENT
  6
HIDDEN1_01
 48
0.5
100
AcDbLine
 10
88.9342003599072
 20
1699.54625374518
 30
0.0
 11
92.9342003599072
 21
1699.54625374518
 31
0.0
  0
LINE
  5
1D8
330
2
100
AcDbEntity
  8
LOCKABLE DOWEL DOWEL COMPONENT
  6
HIDDEN1_01
 48
0.5
100
AcDbLine
 10
88.43420035990721
 20
1700.046253745179
 30
0.0
 11
88.9342003599072
 21
1699.54625374518
 31
0.0
  0
LINE
  5
1D9
330
2
100
AcDbEntity
  8
LOCKABLE DOWEL DOWEL COMPONENT
 48
0.5
100
AcDbLine
 10
-156.565799640093
 20
1729.54625374518
 30
0.0
 11
-127.8157996400928
 21
1729.54625374518
 31
0.0
  0
LINE
  5
1DA
330
2
100
AcDbEntity
  8
LOCKABLE DOWEL DOWEL COMPONENT
  6
HIDDEN1_01
 48
0.5
100
AcDbLine
 10
32.23420035990739
 20
1729.04625374518
 30
0.0
 11
31.73420035990739
 21
1729.54625374518
 31
0.0
  0
LINE
  5
1DB
330
2
100
AcDbEntity
  8
LOCKABLE DOWEL DOWEL COMPONENT
  6
HIDDEN1_01
 48
0.5
100
AcDbLine
 10
37.93420035990744
 20
1729.54625374518
 30
0.0
 11
38.63420035990748
 21
1729.54625374518
 31
0.0
  0
LINE
  5
1DC
330
2
100
AcDbEntity
  8
LOCKABLE DOWEL DOWEL COMPONENT
  6
HIDDEN1_01
 48
0.5
100
AcDbLine
 10
78.73420035990739
 20
1729.54625374518
 30
0.0
 11
82.73420035990739
 21
1729.54625374518
 31
0.0
  0
LINE
  5
1DD
330
2
100
AcDbEntity
  8
LOCKABLE DOWEL DOWEL COMPONENT
  6
HIDDEN1_01
 48
0.5
100
AcDbLine
 10
83.23420035990739
 20
1729.04625374518
 30
0.0
 11
82.73420035990739
 21
1729.54625374518
 31
0.0
  0
LINE
  5
1DE
330
2
100
AcDbEntity
  8
LOCKABLE DOWEL DOWEL COMPONENT
  6
HIDDEN1_01
 48
0.5
100
AcDbLine
 10
78.23420035990739
 20
1729.04625374518
 30
0.0
 11
78.73420035990739
 21
1729.54625374518
 31
0.0
  0
LINE
  5
1DF
330
2
100
AcDbEntity
  8
LOCKABLE DOWEL DOWEL COMPONENT
  6
HIDDEN1_01
 48
0.5
100
AcDbLine
 10
88.9342003599072
 20
1729.54625374518
 30
0.0
 11
92.9342003599072
 21
1729.54625374518
 31
0.0
  0
LINE
  5
1E0
330
2
100
AcDbEntity
  8
LOCKABLE DOWEL DOWEL COMPONENT
  6
HIDDEN1_01
 48
0.5
100
AcDbLine
 10
88.43420035990721
 20
1729.04625374518
 30
0.0
 11
88.9342003599072
 21
1729.54625374518
 31
0.0
  0
LINE
  5
1E1
330
2
100
AcDbEntity
  8
LOCKABLE DOWEL DOWEL COMPONENT
  6
HIDDEN1_01
100
AcDbLine
 10
93.43420035990721
 20
1729.04625374518
 30
0.0
 11
93.43420035990721
 21
1700.046253745179
 31
0.0
  0
LINE
  5
1E2
330
2
100
AcDbEntity
  8
LOCKABLE DOWEL DOWEL COMPONENT
  6
HIDDEN1_01
100
AcDbLine
 10
92.9342003599072
 20
1699.54625374518
 30
0.0
 11
93.43420035990721
 21
1700.046253745179
 31
0.0
  0
LINE
  5
1E3
330
2
100
AcDbEntity
  8
LOCKABLE DOWEL DOWEL COMPONENT
  6
HIDDEN1_01
100
AcDbLine
 10
92.9342003599072
 20
1729.54625374518
 30
0.0
 11
93.43420035990721
 21
1729.04625374518
 31
0.0
  0
LINE
  5
1E4
330
2
100
AcDbEntity
  8
LOCKABLE DOWEL DOWEL COMPONENT
  6
HIDDEN1_01
100
AcDbLine
 10
88.43420035990721
 20
1729.04625374518
 30
0.0
 11
88.43420035990721
 21
1700.046253745179
 31
0.0
  0
LINE
  5
1E5
330
2
100
AcDbEntity
  8
LOCKABLE DOWEL DOWEL COMPONENT
  6
HIDDEN1_01
100
AcDbLine
 10
83.23420035990739
 20
1729.04625374518
 30
0.0
 11
83.23420035990739
 21
1700.046253745179
 31
0.0
  0
LINE
  5
1E6
330
2
100
AcDbEntity
  8
LOCKABLE DOWEL DOWEL COMPONENT
  6
HIDDEN1_01
100
AcDbLine
 10
82.73420035990739
 20
1699.54625374518
 30
0.0
 11
83.23420035990739
 21
1700.046253745179
 31
0.0
  0
LINE
  5
1E7
330
2
100
AcDbEntity
  8
LOCKABLE DOWEL DOWEL COMPONENT
  6
HIDDEN1_01
100
AcDbLine
 10
78.23420035990739
 20
1729.04625374518
 30
0.0
 11
78.23420035990739
 21
1700.046253745179
 31
0.0
  0
LINE
  5
1E8
330
2
100
AcDbEntity
  8
LOCKABLE DOWEL DOWEL COMPONENT
  6
HIDDEN1_01
 48
0.5
100
AcDbLine
 10
68.53420035990734
 20
1699.54625374518
 30
0.0
 11
72.53420035990735
 21
1699.54625374518
 31
0.0
  0
LINE
  5
1E9
330
2
100
AcDbEntity
  8
LOCKABLE DOWEL DOWEL COMPONENT
  6
HIDDEN1_01
 48
0.5
100
AcDbLine
 10
73.03420035990734
 20
1700.046253745179
 30
0.0
 11
72.53420035990735
 21
1699.54625374518
 31
0.0
  0
LINE
  5
1EA
330
2
100
AcDbEntity
  8
LOCKABLE DOWEL DOWEL COMPONENT
  6
HIDDEN1_01
 48
0.5
100
AcDbLine
 10
68.03420035990734
 20
1700.046253745179
 30
0.0
 11
68.53420035990734
 21
1699.54625374518
 31
0.0
  0
LINE
  5
1EB
330
2
100
AcDbEntity
  8
LOCKABLE DOWEL DOWEL COMPONENT
  6
HIDDEN1_01
 48
0.5
100
AcDbLine
 10
68.53420035990734
 20
1729.54625374518
 30
0.0
 11
72.53420035990735
 21
1729.54625374518
 31
0.0
  0
LINE
  5
1EC
330
2
100
AcDbEntity
  8
LOCKABLE DOWEL DOWEL COMPONENT
  6
HIDDEN1_01
 48
0.5
100
AcDbLine
 10
73.03420035990734
 20
1729.04625374518
 30
0.0
 11
72.53420035990735
 21
1729.54625374518
 31
0.0
  0
LINE
  5
1ED
330
2
100
AcDbEntity
  8
LOCKABLE DOWEL DOWEL COMPONENT
  6
HIDDEN1_01
 48
0.5
100
AcDbLine
 10
68.03420035990734
 20
1729.04625374518
 30
0.0
 11
68.53420035990734
 21
1729.54625374518
 31
0.0
  0
LINE
  5
1EE
330
2
100
AcDbEntity
  8
LOCKABLE DOWEL DOWEL COMPONENT
  6
HIDDEN1_01
100
AcDbLine
 10
73.03420035990734
 20
1729.04625374518
 30
0.0
 11
73.03420035990734
 21
1700.046253745179
 31
0.0
  0
LINE
  5
1EF
330
2
100
AcDbEntity
  8
LOCKABLE DOWEL DOWEL COMPONENT
  6
HIDDEN1_01
100
AcDbLine
 10
68.03420035990734
 20
1729.04625374518
 30
0.0
 11
68.03420035990734
 21
1700.046253745179
 31
0.0
  0
LINE
  5
1F0
330
2
100
AcDbEntity
  8
LOCKABLE DOWEL DOWEL COMPONENT
  6
HIDDEN1_01
 48
0.5
100
AcDbLine
 10
58.3342003599073
 20
1699.54625374518
 30
0.0
 11
62.3342003599073
 21
1699.54625374518
 31
0.0
  0
LINE
  5
1F1
330
2
100
AcDbEntity
  8
LOCKABLE DOWEL DOWEL COMPONENT
  6
HIDDEN1_01
 48
0.5
100
AcDbLine
 10
58.3342003599073
 20
1729.54625374518
 30
0.0
 11
62.3342003599073
 21
1729.54625374518
 31
0.0
  0
LINE
  5
1F2
330
2
100
AcDbEntity
  8
LOCKABLE DOWEL DOWEL COMPONENT
  6
HIDDEN1_01
 48
0.5
100
AcDbLine
 10
62.83420035990729
 20
1729.04625374518
 30
0.0
 11
62.3342003599073
 21
1729.54625374518
 31
0.0
  0
LINE
  5
1F3
330
2
100
AcDbEntity
  8
LOCKABLE DOWEL DOWEL COMPONENT
  6
HIDDEN1_01
 48
0.5
100
AcDbLine
 10
57.83420035990729
 20
1729.04625374518
 30
0.0
 11
58.3342003599073
 21
1729.54625374518
 31
0.0
  0
LINE
  5
1F4
330
2
100
AcDbEntity
  8
LOCKABLE DOWEL DOWEL COMPONENT
  6
HIDDEN1_01
100
AcDbLine
 10
62.83420035990729
 20
1729.04625374518
 30
0.0
 11
62.83420035990729
 21
1700.046253745179
 31
0.0
  0
LINE
  5
1F5
330
2
100
AcDbEntity
  8
LOCKABLE DOWEL DOWEL COMPONENT
  6
HIDDEN1_01
100
AcDbLine
 10
62.3342003599073
 20
1699.54625374518
 30
0.0
 11
62.83420035990729
 21
1700.046253745179
 31
0.0
  0
LINE
  5
1F6
330
2
100
AcDbEntity
  8
LOCKABLE DOWEL DOWEL COMPONENT
  6
HIDDEN1_01
100
AcDbLine
 10
57.83420035990729
 20
1729.04625374518
 30
0.0
 11
57.83420035990729
 21
1700.046253745179
 31
0.0
  0
LINE
  5
1F7
330
2
100
AcDbEntity
  8
LOCKABLE DOWEL DOWEL COMPONENT
  6
HIDDEN1_01
100
AcDbLine
 10
58.3342003599073
 20
1699.54625374518
 30
0.0
 11
57.83420035990729
 21
1700.046253745179
 31
0.0
  0
LINE
  5
1F8
330
2
100
AcDbEntity
  8
LOCKABLE DOWEL DOWEL COMPONENT
  6
HIDDEN1_01
 48
0.5
100
AcDbLine
 10
48.13420035990748
 20
1699.54625374518
 30
0.0
 11
52.13420035990726
 21
1699.54625374518
 31
0.0
  0
LINE
  5
1F9
330
2
100
AcDbEntity
  8
LOCKABLE DOWEL DOWEL COMPONENT
  6
HIDDEN1_01
 48
0.5
100
AcDbLine
 10
47.63420035990748
 20
1700.046253745179
 30
0.0
 11
48.13420035990748
 21
1699.54625374518
 31
0.0
  0
LINE
  5
1FA
330
2
100
AcDbEntity
  8
LOCKABLE DOWEL DOWEL COMPONENT
  6
HIDDEN1_01
 48
0.5
100
AcDbLine
 10
48.13420035990748
 20
1729.54625374518
 30
0.0
 11
52.13420035990748
 21
1729.54625374518
 31
0.0
  0
LINE
  5
1FB
330
2
100
AcDbEntity
  8
LOCKABLE DOWEL DOWEL COMPONENT
  6
HIDDEN1_01
 48
0.5
100
AcDbLine
 10
52.63420035990748
 20
1729.04625374518
 30
0.0
 11
52.13420035990748
 21
1729.54625374518
 31
0.0
  0
LINE
  5
1FC
330
2
100
AcDbEntity
  8
LOCKABLE DOWEL DOWEL COMPONENT
  6
HIDDEN1_01
 48
0.5
100
AcDbLine
 10
47.63420035990748
 20
1729.04625374518
 30
0.0
 11
48.13420035990748
 21
1729.54625374518
 31
0.0
  0
LINE
  5
1FD
330
2
100
AcDbEntity
  8
LOCKABLE DOWEL DOWEL COMPONENT
  6
HIDDEN1_01
100
AcDbLine
 10
52.63420035990748
 20
1729.04625374518
 30
0.0
 11
52.63420035990725
 21
1700.046253745179
 31
0.0
  0
LINE
  5
1FE
330
2
100
AcDbEntity
  8
LOCKABLE DOWEL DOWEL COMPONENT
  6
HIDDEN1_01
100
AcDbLine
 10
52.13420035990726
 20
1699.54625374518
 30
0.0
 11
52.63420035990725
 21
1700.046253745179
 31
0.0
  0
LINE
  5
1FF
330
2
100
AcDbEntity
  8
LOCKABLE DOWEL DOWEL COMPONENT
  6
HIDDEN1_01
100
AcDbLine
 10
47.63420035990748
 20
1729.04625374518
 30
0.0
 11
47.63420035990748
 21
1700.046253745179
 31
0.0
  0
LINE
  5
200
330
2
100
AcDbEntity
  8
LOCKABLE DOWEL DOWEL COMPONENT
  6
HIDDEN1_01
 48
0.5
100
AcDbLine
 10
37.93420035990744
 20
1699.54625374518
 30
0.0
 11
41.93420035990743
 21
1699.54625374518
 31
0.0
  0
LINE
  5
201
330
2
100
AcDbEntity
  8
LOCKABLE DOWEL DOWEL COMPONENT
  6
HIDDEN1_01
 48
0.5
100
AcDbLine
 10
37.43420035990744
 20
1700.046253745179
 30
0.0
 11
37.93420035990744
 21
1699.54625374518
 31
0.0
  0
LINE
  5
202
330
2
100
AcDbEntity
  8
LOCKABLE DOWEL DOWEL COMPONENT
  6
HIDDEN1_01
 48
0.5
100
AcDbLine
 10
37.93420035990744
 20
1729.54625374518
 30
0.0
 11
41.93420035990743
 21
1729.54625374518
 31
0.0
  0
LINE
  5
203
330
2
100
AcDbEntity
  8
LOCKABLE DOWEL DOWEL COMPONENT
  6
HIDDEN1_01
 48
0.5
100
AcDbLine
 10
37.43420035990744
 20
1729.04625374518
 30
0.0
 11
37.93420035990744
 21
1729.54625374518
 31
0.0
  0
LINE
  5
204
330
2
100
AcDbEntity
  8
LOCKABLE DOWEL DOWEL COMPONENT
  6
HIDDEN1_01
100
AcDbLine
 10
42.43420035990744
 20
1729.04625374518
 30
0.0
 11
42.43420035990744
 21
1700.046253745179
 31
0.0
  0
LINE
  5
205
330
2
100
AcDbEntity
  8
LOCKABLE DOWEL DOWEL COMPONENT
  6
HIDDEN1_01
100
AcDbLine
 10
41.93420035990743
 20
1729.54625374518
 30
0.0
 11
42.43420035990744
 21
1729.04625374518
 31
0.0
  0
LINE
  5
206
330
2
100
AcDbEntity
  8
LOCKABLE DOWEL DOWEL COMPONENT
  6
HIDDEN1_01
100
AcDbLine
 10
41.93420035990743
 20
1699.54625374518
 30
0.0
 11
42.43420035990744
 21
1700.046253745179
 31
0.0
  0
LINE
  5
207
330
2
100
AcDbEntity
  8
LOCKABLE DOWEL DOWEL COMPONENT
  6
HIDDEN1_01
100
AcDbLine
 10
37.43420035990744
 20
1729.04625374518
 30
0.0
 11
37.43420035990744
 21
1700.046253745179
 31
0.0
  0
LINE
  5
208
330
2
100
AcDbEntity
  8
LOCKABLE DOWEL DOWEL COMPONENT
  6
HIDDEN1_01
 48
0.5
100
AcDbLine
 10
27.23420035990739
 20
1699.54625374518
 30
0.0
 11
31.73420035990739
 21
1699.54625374518
 31
0.0
  0
LINE
  5
209
330
2
100
AcDbEntity
  8
LOCKABLE DOWEL DOWEL COMPONENT
  6
HIDDEN1_01
 48
0.5
100
AcDbLine
 10
27.23420035990739
 20
1729.54625374518
 30
0.0
 11
31.73420035990739
 21
1729.54625374518
 31
0.0
  0
LINE
  5
20A
330
2
100
AcDbEntity
  8
LOCKABLE DOWEL DOWEL COMPONENT
  6
HIDDEN1_01
100
AcDbLine
 10
32.23420035990739
 20
1729.04625374518
 30
0.0
 11
32.23420035990739
 21
1700.046253745179
 31
0.0
  0
LINE
  5
20B
330
2
100
AcDbEntity
  8
LOCKABLE DOWEL DOWEL COMPONENT
  6
HIDDEN1_01
100
AcDbLine
 10
31.73420035990739
 20
1699.54625374518
 30
0.0
 11
32.23420035990739
 21
1700.046253745179
 31
0.0
  0
LINE
  5
20C
330
2
100
AcDbEntity
  8
LOCKABLE DOWEL DOWEL COMPONENT
  6
HIDDEN1_01
100
AcDbLine
 10
31.73420035990739
 20
1729.54625374518
 30
0.0
 11
31.73420035990739
 21
1720.973951227755
 31
0.0
  0
LINE
  5
20D
330
2
100
AcDbEntity
  8
LOCKABLE DOWEL DOWEL COMPONENT
  6
HIDDEN1_01
100
AcDbLine
 10
31.73420035990739
 20
1699.54625374518
 30
0.0
 11
31.73420035990739
 21
1707.163443096263
 31
0.0
  0
LINE
  5
20E
330
2
100
AcDbEntity
  8
LOCKABLE DOWEL DOWEL COMPONENT
  6
HIDDEN1_01
100
AcDbLine
 10
37.93420035990744
 20
1729.54625374518
 30
0.0
 11
37.93420035990744
 21
1720.973951227755
 31
0.0
  0
LINE
  5
20F
330
2
100
AcDbEntity
  8
LOCKABLE DOWEL DOWEL COMPONENT
  6
HIDDEN1_01
100
AcDbLine
 10
37.93420035990744
 20
1699.54625374518
 30
0.0
 11
37.93420035990744
 21
1707.163443096263
 31
0.0
  0
LINE
  5
210
330
2
100
AcDbEntity
  8
LOCKABLE DOWEL DOWEL COMPONENT
  6
HIDDEN1_01
100
AcDbLine
 10
41.93420035990743
 20
1729.54625374518
 30
0.0
 11
41.93420035990743
 21
1720.973951227755
 31
0.0
  0
LINE
  5
211
330
2
100
AcDbEntity
  8
LOCKABLE DOWEL DOWEL COMPONENT
  6
HIDDEN1_01
100
AcDbLine
 10
41.93420035990743
 20
1699.54625374518
 30
0.0
 11
41.93420035990743
 21
1707.163443096263
 31
0.0
  0
LINE
  5
212
330
2
100
AcDbEntity
  8
LOCKABLE DOWEL DOWEL COMPONENT
  6
HIDDEN1_01
100
AcDbLine
 10
48.13420035990748
 20
1729.54625374518
 30
0.0
 11
48.13420035990748
 21
1720.973951227755
 31
0.0
  0
LINE
  5
213
330
2
100
AcDbEntity
  8
LOCKABLE DOWEL DOWEL COMPONENT
  6
HIDDEN1_01
100
AcDbLine
 10
48.13420035990748
 20
1699.54625374518
 30
0.0
 11
48.13420035990748
 21
1707.163443096263
 31
0.0
  0
LINE
  5
214
330
2
100
AcDbEntity
  8
LOCKABLE DOWEL DOWEL COMPONENT
  6
HIDDEN1_01
100
AcDbLine
 10
52.13420035990748
 20
1729.54625374518
 30
0.0
 11
52.13420035990748
 21
1720.973951227755
 31
0.0
  0
LINE
  5
215
330
2
100
AcDbEntity
  8
LOCKABLE DOWEL DOWEL COMPONENT
  6
HIDDEN1_01
100
AcDbLine
 10
52.13420035990748
 20
1699.54625374518
 30
0.0
 11
52.13420035990748
 21
1707.163443096263
 31
0.0
  0
LINE
  5
216
330
2
100
AcDbEntity
  8
LOCKABLE DOWEL DOWEL COMPONENT
  6
HIDDEN1_01
100
AcDbLine
 10
58.3342003599073
 20
1729.54625374518
 30
0.0
 11
58.3342003599073
 21
1720.973951227755
 31
0.0
  0
LINE
  5
217
330
2
100
AcDbEntity
  8
LOCKABLE DOWEL DOWEL COMPONENT
  6
HIDDEN1_01
100
AcDbLine
 10
58.3342003599073
 20
1699.54625374518
 30
0.0
 11
58.3342003599073
 21
1707.163443096263
 31
0.0
  0
LINE
  5
218
330
2
100
AcDbEntity
  8
LOCKABLE DOWEL DOWEL COMPONENT
  6
HIDDEN1_01
100
AcDbLine
 10
62.3342003599073
 20
1729.54625374518
 30
0.0
 11
62.3342003599073
 21
1720.973951227755
 31
0.0
  0
LINE
  5
219
330
2
100
AcDbEntity
  8
LOCKABLE DOWEL DOWEL COMPONENT
  6
HIDDEN1_01
100
AcDbLine
 10
62.3342003599073
 20
1699.54625374518
 30
0.0
 11
62.3342003599073
 21
1707.163443096263
 31
0.0
  0
LINE
  5
21A
330
2
100
AcDbEntity
  8
LOCKABLE DOWEL DOWEL COMPONENT
  6
HIDDEN1_01
100
AcDbLine
 10
68.53420035990734
 20
1729.54625374518
 30
0.0
 11
68.53420035990734
 21
1720.973951227755
 31
0.0
  0
LINE
  5
21B
330
2
100
AcDbEntity
  8
LOCKABLE DOWEL DOWEL COMPONENT
  6
HIDDEN1_01
100
AcDbLine
 10
68.53420035990734
 20
1699.54625374518
 30
0.0
 11
68.53420035990734
 21
1707.163443096263
 31
0.0
  0
LINE
  5
21C
330
2
100
AcDbEntity
  8
LOCKABLE DOWEL DOWEL COMPONENT
  6
HIDDEN1_01
100
AcDbLine
 10
72.53420035990735
 20
1729.54625374518
 30
0.0
 11
72.53420035990735
 21
1720.973951227755
 31
0.0
  0
LINE
  5
21D
330
2
100
AcDbEntity
  8
LOCKABLE DOWEL DOWEL COMPONENT
  6
HIDDEN1_01
100
AcDbLine
 10
72.53420035990735
 20
1699.54625374518
 30
0.0
 11
72.53420035990735
 21
1707.163443096263
 31
0.0
  0
LINE
  5
21E
330
2
100
AcDbEntity
  8
LOCKABLE DOWEL DOWEL COMPONENT
  6
HIDDEN1_01
100
AcDbLine
 10
78.73420035990739
 20
1729.54625374518
 30
0.0
 11
78.73420035990739
 21
1720.973951227755
 31
0.0
  0
LINE
  5
21F
330
2
100
AcDbEntity
  8
LOCKABLE DOWEL DOWEL COMPONENT
  6
HIDDEN1_01
100
AcDbLine
 10
78.73420035990739
 20
1699.54625374518
 30
0.0
 11
78.73420035990739
 21
1707.163443096263
 31
0.0
  0
LINE
  5
220
330
2
100
AcDbEntity
  8
LOCKABLE DOWEL DOWEL COMPONENT
  6
HIDDEN1_01
100
AcDbLine
 10
82.73420035990739
 20
1729.54625374518
 30
0.0
 11
82.73420035990739
 21
1720.973951227755
 31
0.0
  0
LINE
  5
221
330
2
100
AcDbEntity
  8
LOCKABLE DOWEL DOWEL COMPONENT
  6
HIDDEN1_01
100
AcDbLine
 10
82.73420035990739
 20
1699.54625374518
 30
0.0
 11
82.73420035990739
 21
1707.163443096263
 31
0.0
  0
LINE
  5
222
330
2
100
AcDbEntity
  8
LOCKABLE DOWEL DOWEL COMPONENT
  6
HIDDEN1_01
100
AcDbLine
 10
88.9342003599072
 20
1729.54625374518
 30
0.0
 11
88.9342003599072
 21
1720.973951227755
 31
0.0
  0
LINE
  5
223
330
2
100
AcDbEntity
  8
LOCKABLE DOWEL DOWEL COMPONENT
  6
HIDDEN1_01
100
AcDbLine
 10
88.9342003599072
 20
1699.54625374518
 30
0.0
 11
88.9342003599072
 21
1707.163443096263
 31
0.0
  0
LINE
  5
224
330
2
100
AcDbEntity
  8
LOCKABLE DOWEL DOWEL COMPONENT
  6
HIDDEN1_01
100
AcDbLine
 10
92.9342003599072
 20
1729.54625374518
 30
0.0
 11
92.9342003599072
 21
1720.973951227755
 31
0.0
  0
LINE
  5
225
330
2
100
AcDbEntity
  8
LOCKABLE DOWEL DOWEL COMPONENT
  6
HIDDEN1_01
100
AcDbLine
 10
92.9342003599072
 20
1699.54625374518
 30
0.0
 11
92.9342003599072
 21
1707.163443096263
 31
0.0
  0
LINE
  5
226
330
2
100
AcDbEntity
  8
LOCKABLE DOWEL DOWEL COMPONENT
  6
HIDDEN1_01
100
AcDbLine
 10
-188.565799640093
 20
1726.046253745179
 30
0.0
 11
-188.5657996400925
 21
1703.046253745181
 31
0.0
  0
LINE
  5
227
330
2
100
AcDbEntity
  8
LOCKABLE DOWEL DOWEL COMPONENT
  6
HIDDEN1_01
100
AcDbLine
 10
-188.5657996400925
 20
1703.04625374518
 30
0.0
 11
-185.0657996400926
 21
1699.54625374518
 31
0.0
  0
LINE
  5
228
330
2
100
AcDbEntity
  8
LOCKABLE DOWEL DOWEL COMPONENT
  6
HIDDEN1_01
100
AcDbLine
 10
-188.5657996400925
 20
1726.046253745179
 30
0.0
 11
-185.0657996400926
 21
1729.54625374518
 31
0.0
  0
LINE
  5
229
330
2
100
AcDbEntity
  8
LOCKABLE DOWEL DOWEL COMPONENT
  6
HIDDEN1_01
100
AcDbLine
 10
-185.0657996400926
 20
1729.54625374518
 30
0.0
 11
-160.3157996400928
 21
1729.54625374518
 31
0.0
  0
LINE
  5
22A
330
2
100
AcDbEntity
  8
LOCKABLE DOWEL DOWEL COMPONENT
100
AcDbLine
 10
-160.3157996400928
 20
1729.54625374518
 30
0.0
 11
-156.565799640093
 21
1729.54625374518
 31
0.0
  0
LINE
  5
22B
330
2
100
AcDbEntity
  8
LOCKABLE DOWEL DOWEL COMPONENT
  6
HIDDEN1_01
100
AcDbLine
 10
-185.0657996400926
 20
1699.54625374518
 30
0.0
 11
-160.3157996400928
 21
1699.54625374518
 31
0.0
  0
LINE
  5
22C
330
2
100
AcDbEntity
  8
LOCKABLE DOWEL DOWEL COMPONENT
100
AcDbLine
 10
-160.3157996400928
 20
1699.54625374518
 30
0.0
 11
-156.565799640093
 21
1699.54625374518
 31
0.0
  0
LINE
  5
22D
330
2
100
AcDbEntity
  8
LOCKABLE DOWEL DOWEL COMPONENT
100
AcDbLine
 10
-156.565799640093
 20
1699.54625374518
 30
0.0
 11
-156.565799640093
 21
1729.54625374518
 31
0.0
  0
LINE
  5
22E
330
2
100
AcDbEntity
  8
LOCKABLE DOWEL SLEEVE
  6
HIDDEN1_01
100
AcDbLine
 10
73.03420035990734
 20
1700.54625374518
 30
0.0
 11
78.03420035990734
 21
1700.54625374518
 31
0.0
  0
LINE
  5
22F
330
2
100
AcDbEntity
  8
LOCKABLE DOWEL DOWEL COMPONENT
 48
0.5
100
AcDbLine
 10
-156.5657996400925
 20
1699.546253745179
 30
0.0
 11
-127.8157996400928
 21
1699.546253745179
 31
0.0
  0
LINE
  5
230
330
2
100
AcDbEntity
  8
LOCKABLE DOWEL DOWEL COMPONENT
  6
HIDDEN1_01
100
AcDbLine
 10
-127.8157996400928
 20
1699.546253745179
 30
0.0
 11
31.73420035990739
 21
1699.546253745179
 31
0.0
  0
LINE
  5
231
330
2
100
AcDbEntity
  8
LOCKABLE DOWEL DOWEL COMPONENT
 48
0.5
100
AcDbLine
 10
-156.565799640093
 20
1729.546253745179
 30
0.0
 11
-127.8157996400928
 21
1729.546253745179
 31
0.0
  0
LINE
  5
232
330
2
100
AcDbEntity
  8
LOCKABLE DOWEL DOWEL COMPONENT
  6
HIDDEN1_01
100
AcDbLine
 10
-127.8157996400928
 20
1729.546253745179
 30
0.0
 11
31.73420035990739
 21
1729.546253745179
 31
0.0
  0
LINE
  5
233
330
2
100
AcDbEntity
  8
LOCKABLE DOWEL FORMER
  6
HIDDEN1_01
100
AcDbLine
 10
73.03420035990723
 20
1679.296253745179
 30
0.0
 11
73.03420035990723
 21
1749.79625374518
 31
0.0
  0
LINE
  5
234
330
2
100
AcDbEntity
  8
LOCKABLE DOWEL FORMER
  6
HIDDEN1_01
100
AcDbLine
 10
78.03420035990723
 20
1679.296253745179
 30
0.0
 11
78.03420035990723
 21
1749.79625374518
 31
0.0
  0
LINE
  5
235
330
2
100
AcDbEntity
  8
LOCKABLE DOWEL FORMER
  6
HIDDEN1_01
100
AcDbLine
 10
73.03420035990723
 20
1679.296253745179
 30
0.0
 11
78.03420035990723
 21
1679.296253745179
 31
0.0
  0
LINE
  5
236
330
2
100
AcDbEntity
  8
LOCKABLE DOWEL FORMER
  6
HIDDEN1_01
100
AcDbLine
 10
73.03420035990723
 20
1749.79625374518
 30
0.0
 11
78.03420035990723
 21
1749.79625374518
 31
0.0
  0
ENDSEC
  0
SECTION
  2
OBJECTS
  0
DICTIONARY
  5
B
330
0
100
AcDbDictionary
281
     1
  3
ACAD_COLOR
350
49
  3
ACAD_GROUP
350
36
  3
ACAD_LAYOUT
350
18
  3
ACAD_MATERIAL
350
D
  3
ACAD_MLEADERSTYLE
350
250
  3
ACAD_MLINESTYLE
350
37
  3
ACAD_PLOTSETTINGS
350
38
  3
ACAD_PLOTSTYLENAME
350
A
  3
ACAD_SCALELIST
350
4A
  3
ACAD_TABLESTYLE
350
4B
  3
ACAD_VISUALSTYLE
350
30
  3
ACDB_RECOMPOSE_DATA
350
23A
  3
AcDbVariableDictionary
350
23B
  0
DICTIONARY
  5
31
330
2D
100
AcDbDictionary
280
     1
281
     1
  0
DICTIONARY
  5
20
330
1F
100
AcDbDictionary
280
     1
281
     1
  3
ACAD_LAYERFILTERS
360
21
  3
ACAD_LAYERSTATES
360
22
  3
ACLYDICTIONARY
360
23
  0
DICTIONARY
  5
7
330
6
100
AcDbDictionary
280
     1
281
     1
  3
ADSK_XREC_LAYER_RECONCILED
360
8
  0
DICTIONARY
  5
A6
330
A5
100
AcDbDictionary
280
     1
281
     1
  3
ADSK_XREC_LAYER_RECONCILED
360
A7
  0
DICTIONARY
  5
199
330
198
100
AcDbDictionary
280
     1
281
     1
  3
ADSK_XREC_LAYER_RECONCILED
360
19A
  0
DICTIONARY
  5
3
330
2
100
AcDbDictionary
280
     1
281
     1
  3
ACAD_SORTENTS
360
237
  0
DICTIONARY
  5
49
102
{ACAD_REACTORS
330
B
102
}
330
B
100
AcDbDictionary
281
     1
  0
DICTIONARY
  5
36
102
{ACAD_REACTORS
330
B
102
}
330
B
100
AcDbDictionary
281
     1
  0
DICTIONARY
  5
18
102
{ACAD_REACTORS
330
B
102
}
330
B
100
AcDbDictionary
281
     1
  3
Layout1
350
1C
  3
Model
350
17
  0
DICTIONARY
  5
D
102
{ACAD_REACTORS
330
B
102
}
330
B
100
AcDbDictionary
281
     1
  3
ByBlock
350
41
  3
ByLayer
350
39
  3
Global
350
C
  0
DICTIONARY
  5
250
102
{ACAD_REACTORS
330
B
102
}
330
B
100
AcDbDictionary
281
     1
  3
Standard
350
251
  0
DICTIONARY
  5
37
102
{ACAD_REACTORS
330
B
102
}
330
B
100
AcDbDictionary
281
     1
  3
Standard
350
4F
  0
DICTIONARY
  5
38
102
{ACAD_REACTORS
330
B
102
}
330
B
100
AcDbDictionary
281
     1
  0
ACDBDICTIONARYWDFLT
  5
A
102
{ACAD_REACTORS
330
B
102
}
330
B
100
AcDbDictionary
281
     1
  3
Normal
350
9
100
AcDbDictionaryWithDefault
340
9
  0
DICTIONARY
  5
4A
102
{ACAD_REACTORS
330
B
102
}
330
B
100
AcDbDictionary
281
     1
  3
A0
350
54
  3
A1
350
55
  3
A2
350
56
  3
A3
350
57
  3
A4
350
58
  3
A5
350
59
  3
A6
350
5A
  3
A7
350
5B
  3
A8
350
5C
  3
A9
350
5D
  3
B0
350
5E
  3
B1
350
5F
  3
B2
350
60
  3
B3
350
61
  3
B4
350
62
  3
B5
350
63
  3
B6
350
64
  3
B7
350
65
  3
B8
350
66
  3
B9
350
67
  3
C0
350
68
  3
C1
350
69
  3
C2
350
6A
  3
C3
350
6B
  3
C4
350
6C
  3
C5
350
6D
  3
C6
350
6E
  3
C7
350
6F
  3
C8
350
70
  3
C9
350
71
  3
D0
350
72
  3
D1
350
73
  3
D2
350
74
  0
DICTIONARY
  5
4B
102
{ACAD_REACTORS
330
B
102
}
330
B
100
AcDbDictionary
281
     1
  3
Standard
350
50
  0
DICTIONARY
  5
30
102
{ACAD_REACTORS
330
B
102
}
330
B
100
AcDbDictionary
281
     1
  3
2dWireframe
350
2F
  3
3D Hidden
350
248
  3
3dWireframe
350
53
  3
Basic
350
247
  3
Brighten
350
24B
  3
ColorChange
350
24F
  3
Conceptual
350
249
  3
Dim
350
24A
  3
Facepattern
350
24E
  3
Flat
350
243
  3
FlatWithEdges
350
244
  3
Gouraud
350
245
  3
GouraudWithEdges
350
246
  3
Linepattern
350
24D
  3
Realistic
350
52
  3
Thicken
350
24C
  0
XRECORD
  5
23A
102
{ACAD_REACTORS
330
B
102
}
330
B
100
AcDbXrecord
280
     1
 90
        1
330
50
  0
DICTIONARY
  5
23B
102
{ACAD_REACTORS
330
B
102
}
330
B
100
AcDbDictionary
281
     1
  3
CANNOSCALE
350
23E
  3
CMLEADERSTYLE
350
23D
  3
CTABLESTYLE
350
23C
  3
LAYEREVAL
350
240
  3
LAYERNOTIFY
350
241
  3
LIGHTINGUNITS
350
23F
  3
MSLTSCALE
350
256
  0
DICTIONARY
  5
21
102
{ACAD_REACTORS
330
20
102
}
330
20
100
AcDbDictionary
281
     1
  0
DICTIONARY
  5
22
102
{ACAD_REACTORS
330
20
102
}
330
20
100
AcDbDictionary
281
     1
  0
DICTIONARY
  5
23
102
{ACAD_REACTORS
330
20
102
}
330
20
100
AcDbDictionary
281
     1
1001
ACAD
1000
<All
  0
XRECORD
  5
8
102
{ACAD_REACTORS
330
7
102
}
330
7
100
AcDbXrecord
280
     1
290
     1
  0
XRECORD
  5
A7
102
{ACAD_REACTORS
330
A6
102
}
330
A6
100
AcDbXrecord
280
     1
290
     1
  0
XRECORD
  5
19A
102
{ACAD_REACTORS
330
199
102
}
330
199
100
AcDbXrecord
280
     1
290
     1
  0
SORTENTSTABLE
  5
237
102
{ACAD_REACTORS
330
3
102
}
330
3
100
AcDbSortentsTable
330
2
  0
LAYOUT
  5
1C
102
{ACAD_XDICTIONARY
360
1D
102
}
102
{ACAD_REACTORS
330
18
102
}
330
18
100
AcDbPlotSettings
  1

  2
\\Hermes\Canon Export
  4
A4
  6

 40
6.805083274841308
 41
5.619736671447753
 42
6.974411010742187
 43
5.027069091796875
 44
209.9733276367187
 45
296.9259948730469
 46
0.0
 47
0.0
 48
0.0
 49
0.0
140
0.0
141
0.0
142
1.0
143
1.408373058862776
 70
   688
 72
     1
 73
     1
 74
     1
  7
Ancon pen settings.ctb
 75
     0
147
0.710039143185168
 76
     1
 77
     2
 78
   300
148
0.0295434076670063
149
0.2562549577033906
100
AcDbLayout
  1
Layout1
 70
     0
 71
     1
 10
-7.10953208159549
 20
-9.840350905307564
 11
411.0730395736306
 21
285.880426818014
 12
0.0
 22
0.0
 32
0.0
 14
0.0
 24
-0.2551426056372079
 34
0.0
 15
402.2
 25
276.04
 35
0.0
146
0.0
 13
0.0
 23
0.0
 33
0.0
 16
1.0
 26
0.0
 36
0.0
 17
0.0
 27
1.0
 37
0.0
 76
     0
330
19
  0
LAYOUT
  5
17
102
{ACAD_REACTORS
330
18
102
}
330
18
100
AcDbPlotSettings
  1

  2
none_device
  4
Letter_(8.50_x_11.00_Inches)
  6

 40
6.349999904632568
 41
6.349999904632568
 42
6.350006103515625
 43
6.350006103515625
 44
215.8999938964844
 45
279.3999938964844
 46
0.0
 47
0.0
 48
0.0
 49
0.0
140
0.0
141
0.0
142
1.0
143
1.0
 70
 11952
 72
     0
 73
     1
 74
     0
  7
Ancon pen settings.ctb
 75
     0
147
1.0
 76
     0
 77
     2
 78
   300
148
-9123.298005735746
149
-1608.454362395838
100
AcDbLayout
  1
Model
 70
     1
 71
     0
 10
0.0
 20
0.0
 11
12.0
 21
9.0
 12
0.0
 22
0.0
 32
0.0
 14
0.0
 24
0.0
 34
0.0
 15
0.0
 25
0.0
 35
0.0
146
0.0
 13
0.0
 23
0.0
 33
0.0
 16
1.0
 26
0.0
 36
0.0
 17
0.0
 27
1.0
 37
0.0
 76
     0
330
2
331
2E
  0
MATERIAL
  5
41
102
{ACAD_XDICTIONARY
360
42
102
}
102
{ACAD_REACTORS
330
D
102
}
330
D
100
AcDbMaterial
  1
ByBlock
 72
     0
 43
0.0208333333333333
 43
0.0
 43
0.0
 43
0.0
 43
0.0
 43
0.0208333333333333
 43
0.0
 43
0.0
 43
0.0
 43
0.0
 43
1.0
 43
0.0
 43
0.0
 43
0.0
 43
0.0
 43
1.0
 77
     0
 47
0.0208333333333333
 47
0.0
 47
0.0
 47
0.0
 47
0.0
 47
0.0208333333333333
 47
0.0
 47
0.0
 47
0.0
 47
0.0
 47
1.0
 47
0.0
 47
0.0
 47
0.0
 47
0.0
 47
1.0
171
     0
 49
0.0208333333333333
 49
0.0
 49
0.0
 49
0.0
 49
0.0
 49
0.0208333333333333
 49
0.0
 49
0.0
 49
0.0
 49
0.0
 49
1.0
 49
0.0
 49
0.0
 49
0.0
 49
0.0
 49
1.0
175
     0
142
0.0208333333333333
142
0.0
142
0.0
142
0.0
142
0.0
142
0.0208333333333333
142
0.0
142
0.0
142
0.0
142
0.0
142
1.0
142
0.0
142
0.0
142
0.0
142
0.0
142
1.0
179
     0
144
0.0208333333333333
144
0.0
144
0.0
144
0.0
144
0.0
144
0.0208333333333333
144
0.0
144
0.0
144
0.0
144
0.0
144
1.0
144
0.0
144
0.0
144
0.0
144
0.0
144
1.0
147
0.0208333333333333
147
0.0
147
0.0
147
0.0
147
0.0
147
0.0208333333333333
147
0.0
147
0.0
147
0.0
147
0.0
147
1.0
147
0.0
147
0.0
147
0.0
147
0.0
147
1.0
  0
MATERIAL
  5
39
102
{ACAD_XDICTIONARY
360
3A
102
}
102
{ACAD_REACTORS
330
D
102
}
330
D
100
AcDbMaterial
  1
ByLayer
 72
     0
 43
0.0208333333333333
 43
0.0
 43
0.0
 43
0.0
 43
0.0
 43
0.0208333333333333
 43
0.0
 43
0.0
 43
0.0
 43
0.0
 43
1.0
 43
0.0
 43
0.0
 43
0.0
 43
0.0
 43
1.0
 77
     0
 47
0.0208333333333333
 47
0.0
 47
0.0
 47
0.0
 47
0.0
 47
0.0208333333333333
 47
0.0
 47
0.0
 47
0.0
 47
0.0
 47
1.0
 47
0.0
 47
0.0
 47
0.0
 47
0.0
 47
1.0
171
     0
 49
0.0208333333333333
 49
0.0
 49
0.0
 49
0.0
 49
0.0
 49
0.0208333333333333
 49
0.0
 49
0.0
 49
0.0
 49
0.0
 49
1.0
 49
0.0
 49
0.0
 49
0.0
 49
0.0
 49
1.0
175
     0
142
0.0208333333333333
142
0.0
142
0.0
142
0.0
142
0.0
142
0.0208333333333333
142
0.0
142
0.0
142
0.0
142
0.0
142
1.0
142
0.0
142
0.0
142
0.0
142
0.0
142
1.0
179
     0
144
0.0208333333333333
144
0.0
144
0.0
144
0.0
144
0.0
144
0.0208333333333333
144
0.0
144
0.0
144
0.0
144
0.0
144
1.0
144
0.0
144
0.0
144
0.0
144
0.0
144
1.0
147
0.0208333333333333
147
0.0
147
0.0
147
0.0
147
0.0
147
0.0208333333333333
147
0.0
147
0.0
147
0.0
147
0.0
147
1.0
147
0.0
147
0.0
147
0.0
147
0.0
147
1.0
  0
MATERIAL
  5
C
102
{ACAD_XDICTIONARY
360
E
102
}
102
{ACAD_REACTORS
330
D
102
}
330
D
100
AcDbMaterial
  1
Global
 72
     0
 43
0.0208333333333333
 43
0.0
 43
0.0
 43
0.0
 43
0.0
 43
0.0208333333333333
 43
0.0
 43
0.0
 43
0.0
 43
0.0
 43
1.0
 43
0.0
 43
0.0
 43
0.0
 43
0.0
 43
1.0
 77
     0
 47
0.0208333333333333
 47
0.0
 47
0.0
 47
0.0
 47
0.0
 47
0.0208333333333333
 47
0.0
 47
0.0
 47
0.0
 47
0.0
 47
1.0
 47
0.0
 47
0.0
 47
0.0
 47
0.0
 47
1.0
171
     0
 49
0.0208333333333333
 49
0.0
 49
0.0
 49
0.0
 49
0.0
 49
0.0208333333333333
 49
0.0
 49
0.0
 49
0.0
 49
0.0
 49
1.0
 49
0.0
 49
0.0
 49
0.0
 49
0.0
 49
1.0
175
     0
142
0.0208333333333333
142
0.0
142
0.0
142
0.0
142
0.0
142
0.0208333333333333
142
0.0
142
0.0
142
0.0
142
0.0
142
1.0
142
0.0
142
0.0
142
0.0
142
0.0
142
1.0
179
     0
144
0.0208333333333333
144
0.0
144
0.0
144
0.0
144
0.0
144
0.0208333333333333
144
0.0
144
0.0
144
0.0
144
0.0
144
1.0
144
0.0
144
0.0
144
0.0
144
0.0
144
1.0
147
0.0208333333333333
147
0.0
147
0.0
147
0.0
147
0.0
147
0.0208333333333333
147
0.0
147
0.0
147
0.0
147
0.0
147
1.0
147
0.0
147
0.0
147
0.0
147
0.0
147
1.0
  0
MLEADERSTYLE
  5
251
102
{ACAD_REACTORS
330
250
102
}
330
250
100
AcDbMLeaderStyle
170
     2
171
     1
172
     0
 90
        2
 40
0.0
 41
0.0
173
     1
 91
-1056964608
340
29
 92
       -2
290
     1
 42
0.09
291
     1
 43
0.36
  3
Standard
 44
0.18
300

342
26
174
     1
178
     6
175
     1
176
     0
 93
-1056964608
 45
0.18
292
     0
297
     0
 46
0.18
 94
-1056964608
 47
1.0
 49
1.0
140
1.0
293
     1
141
0.0
294
     1
177
     0
142
1.0
295
     0
296
     0
143
0.125
1001
ACAD_MLEADERVER
1070
     2
  0
MLINESTYLE
  5
4F
102
{ACAD_REACTORS
330
37
102
}
330
37
100
AcDbMlineStyle
  2
STANDARD
 70
     0
  3

 62
   256
 51
90.0
 52
90.0
 71
     2
 49
0.5
 62
   256
  6
BYLAYER
 49
-0.5
 62
   256
  6
BYLAYER
  0
ACDBPLACEHOLDER
  5
9
102
{ACAD_REACTORS
330
A
102
}
330
A
  0
SCALE
  5
54
102
{ACAD_REACTORS
330
4A
102
}
330
4A
100
AcDbScale
 70
     0
300
1:1
140
1.0
141
1.0
290
     1
  0
SCALE
  5
55
102
{ACAD_REACTORS
330
4A
102
}
330
4A
100
AcDbScale
 70
     0
300
1:2
140
1.0
141
2.0
290
     0
  0
SCALE
  5
56
102
{ACAD_REACTORS
330
4A
102
}
330
4A
100
AcDbScale
 70
     0
300
1:4
140
1.0
141
4.0
290
     0
  0
SCALE
  5
57
102
{ACAD_REACTORS
330
4A
102
}
330
4A
100
AcDbScale
 70
     0
300
1:5
140
1.0
141
5.0
290
     0
  0
SCALE
  5
58
102
{ACAD_REACTORS
330
4A
102
}
330
4A
100
AcDbScale
 70
     0
300
1:8
140
1.0
141
8.0
290
     0
  0
SCALE
  5
59
102
{ACAD_REACTORS
330
4A
102
}
330
4A
100
AcDbScale
 70
     0
300
1:10
140
1.0
141
10.0
290
     0
  0
SCALE
  5
5A
102
{ACAD_REACTORS
330
4A
102
}
330
4A
100
AcDbScale
 70
     0
300
1:16
140
1.0
141
16.0
290
     0
  0
SCALE
  5
5B
102
{ACAD_REACTORS
330
4A
102
}
330
4A
100
AcDbScale
 70
     0
300
1:20
140
1.0
141
20.0
290
     0
  0
SCALE
  5
5C
102
{ACAD_REACTORS
330
4A
102
}
330
4A
100
AcDbScale
 70
     0
300
1:30
140
1.0
141
30.0
290
     0
  0
SCALE
  5
5D
102
{ACAD_REACTORS
330
4A
102
}
330
4A
100
AcDbScale
 70
     0
300
1:40
140
1.0
141
40.0
290
     0
  0
SCALE
  5
5E
102
{ACAD_REACTORS
330
4A
102
}
330
4A
100
AcDbScale
 70
     0
300
1:50
140
1.0
141
50.0
290
     0
  0
SCALE
  5
5F
102
{ACAD_REACTORS
330
4A
102
}
330
4A
100
AcDbScale
 70
     0
300
1:100
140
1.0
141
100.0
290
     0
  0
SCALE
  5
60
102
{ACAD_REACTORS
330
4A
102
}
330
4A
100
AcDbScale
 70
     0
300
2:1
140
2.0
141
1.0
290
     0
  0
SCALE
  5
61
102
{ACAD_REACTORS
330
4A
102
}
330
4A
100
AcDbScale
 70
     0
300
4:1
140
4.0
141
1.0
290
     0
  0
SCALE
  5
62
102
{ACAD_REACTORS
330
4A
102
}
330
4A
100
AcDbScale
 70
     0
300
8:1
140
8.0
141
1.0
290
     0
  0
SCALE
  5
63
102
{ACAD_REACTORS
330
4A
102
}
330
4A
100
AcDbScale
 70
     0
300
10:1
140
10.0
141
1.0
290
     0
  0
SCALE
  5
64
102
{ACAD_REACTORS
330
4A
102
}
330
4A
100
AcDbScale
 70
     0
300
100:1
140
100.0
141
1.0
290
     0
  0
SCALE
  5
65
102
{ACAD_REACTORS
330
4A
102
}
330
4A
100
AcDbScale
 70
     0
300
1/128" = 1'-0"
140
0.0078125
141
12.0
290
     0
  0
SCALE
  5
66
102
{ACAD_REACTORS
330
4A
102
}
330
4A
100
AcDbScale
 70
     0
300
1/64" = 1'-0"
140
0.015625
141
12.0
290
     0
  0
SCALE
  5
67
102
{ACAD_REACTORS
330
4A
102
}
330
4A
100
AcDbScale
 70
     0
300
1/32" = 1'-0"
140
0.03125
141
12.0
290
     0
  0
SCALE
  5
68
102
{ACAD_REACTORS
330
4A
102
}
330
4A
100
AcDbScale
 70
     0
300
1/16" = 1'-0"
140
0.0625
141
12.0
290
     0
  0
SCALE
  5
69
102
{ACAD_REACTORS
330
4A
102
}
330
4A
100
AcDbScale
 70
     0
300
3/32" = 1'-0"
140
0.09375
141
12.0
290
     0
  0
SCALE
  5
6A
102
{ACAD_REACTORS
330
4A
102
}
330
4A
100
AcDbScale
 70
     0
300
1/8" = 1'-0"
140
0.125
141
12.0
290
     0
  0
SCALE
  5
6B
102
{ACAD_REACTORS
330
4A
102
}
330
4A
100
AcDbScale
 70
     0
300
3/16" = 1'-0"
140
0.1875
141
12.0
290
     0
  0
SCALE
  5
6C
102
{ACAD_REACTORS
330
4A
102
}
330
4A
100
AcDbScale
 70
     0
300
1/4" = 1'-0"
140
0.25
141
12.0
290
     0
  0
SCALE
  5
6D
102
{ACAD_REACTORS
330
4A
102
}
330
4A
100
AcDbScale
 70
     0
300
3/8" = 1'-0"
140
0.375
141
12.0
290
     0
  0
SCALE
  5
6E
102
{ACAD_REACTORS
330
4A
102
}
330
4A
100
AcDbScale
 70
     0
300
1/2" = 1'-0"
140
0.5
141
12.0
290
     0
  0
SCALE
  5
6F
102
{ACAD_REACTORS
330
4A
102
}
330
4A
100
AcDbScale
 70
     0
300
3/4" = 1'-0"
140
0.75
141
12.0
290
     0
  0
SCALE
  5
70
102
{ACAD_REACTORS
330
4A
102
}
330
4A
100
AcDbScale
 70
     0
300
1" = 1'-0"
140
1.0
141
12.0
290
     0
  0
SCALE
  5
71
102
{ACAD_REACTORS
330
4A
102
}
330
4A
100
AcDbScale
 70
     0
300
1-1/2" = 1'-0"
140
1.5
141
12.0
290
     0
  0
SCALE
  5
72
102
{ACAD_REACTORS
330
4A
102
}
330
4A
100
AcDbScale
 70
     0
300
3" = 1'-0"
140
3.0
141
12.0
290
     0
  0
SCALE
  5
73
102
{ACAD_REACTORS
330
4A
102
}
330
4A
100
AcDbScale
 70
     0
300
6" = 1'-0"
140
6.0
141
12.0
290
     0
  0
SCALE
  5
74
102
{ACAD_REACTORS
330
4A
102
}
330
4A
100
AcDbScale
 70
     0
300
1'-0" = 1'-0"
140
12.0
141
12.0
290
     0
  0
TABLESTYLE
  5
50
102
{ACAD_XDICTIONARY
360
51
102
}
102
{ACAD_REACTORS
330
4B
102
}
330
4B
100
AcDbTableStyle
  3
Standard
 70
     0
 71
     0
 40
0.06
 41
0.06
280
     0
281
     0
  7
STANDARD
140
0.18
170
     2
 62
     0
 63
     7
283
     0
274
    -2
284
     1
 64
     0
275
    -2
285
     1
 65
     0
276
    -2
286
     1
 66
     0
277
    -2
287
     1
 67
     0
278
    -2
288
     1
 68
     0
279
    -2
289
     1
 69
     0
  7
STANDARD
140
0.25
170
     5
 62
     0
 63
     7
283
     0
274
    -2
284
     1
 64
     0
275
    -2
285
     1
 65
     0
276
    -2
286
     1
 66
     0
277
    -2
287
     1
 67
     0
278
    -2
288
     1
 68
     0
279
    -2
289
     1
 69
     0
  7
STANDARD
140
0.18
170
     5
 62
     0
 63
     7
283
     0
274
    -2
284
     1
 64
     0
275
    -2
285
     1
 65
     0
276
    -2
286
     1
 66
     0
277
    -2
287
     1
 67
     0
278
    -2
288
     1
 68
     0
279
    -2
289
     1
 69
     0
  0
VISUALSTYLE
  5
2F
102
{ACAD_REACTORS
330
30
102
}
330
30
100
AcDbVisualStyle
  2
2dWireframe
 70
     4
 71
     0
 72
     2
 73
     0
 90
        0
 40
-0.6
 41
-30.0
 62
     5
 63
     7
 74
     1
 91
        4
 64
     7
 65
   257
 75
     1
175
     1
 42
1.0
 92
        0
 66
   257
 43
1.0
 76
     1
 77
     6
 78
     2
 67
     7
 79
     5
170
     0
171
     0
290
     0
174
     0
 93
        1
 44
0.0
173
     0
291
     0
 45
0.0
1001
ACAD
1000
AcDbSavedByObjectVersion
1070
     0
  0
VISUALSTYLE
  5
248
102
{ACAD_REACTORS
330
30
102
}
330
30
100
AcDbVisualStyle
  2
3D Hidden
 70
     6
 71
     1
 72
     2
 73
     2
 90
        0
 40
-0.6
 41
-30.0
 62
     5
 63
     7
421
 16777215
 74
     2
 91
        2
 64
     7
 65
   257
 75
     2
175
     1
 42
40.0
 92
        0
 66
   257
 43
1.0
 76
     1
 77
     6
 78
     2
 67
     7
 79
     3
170
     0
171
     0
290
     0
174
     0
 93
        1
 44
0.0
173
     0
291
     0
 45
0.0
1001
ACAD
1000
AcDbSavedByObjectVersion
1070
     0
  0
VISUALSTYLE
  5
53
102
{ACAD_REACTORS
330
30
102
}
330
30
100
AcDbVisualStyle
  2
3dWireframe
 70
     5
 71
     0
 72
     2
 73
     0
 90
        0
 40
-0.6
 41
-30.0
 62
     5
 63
     7
 74
     1
 91
        4
 64
     7
 65
   257
 75
     1
175
     1
 42
1.0
 92
        0
 66
   257
 43
1.0
 76
     1
 77
     6
 78
     2
 67
     7
 79
     5
170
     0
171
     0
290
     0
174
     0
 93
        1
 44
0.0
173
     0
291
     0
 45
0.0
1001
ACAD
1000
AcDbSavedByObjectVersion
1070
     0
  0
VISUALSTYLE
  5
247
102
{ACAD_REACTORS
330
30
102
}
330
30
100
AcDbVisualStyle
  2
Basic
 70
     7
 71
     1
 72
     0
 73
     1
 90
        0
 40
-0.6
 41
-30.0
 62
     5
 63
     7
421
 16777215
 74
     0
 91
        4
 64
     7
 65
   257
 75
     1
175
     1
 42
1.0
 92
        8
 66
     7
 43
1.0
 76
     1
 77
     6
 78
     2
 67
     7
 79
     5
170
     0
171
     0
290
     0
174
     0
 93
        1
 44
0.0
173
     0
291
     1
 45
0.0
1001
ACAD
1000
AcDbSavedByObjectVersion
1070
     0
  0
VISUALSTYLE
  5
24B
102
{ACAD_REACTORS
330
30
102
}
330
30
100
AcDbVisualStyle
  2
Brighten
 70
    12
 71
     2
 72
     2
 73
     0
 90
        0
 40
-0.6
 41
-30.0
 62
     5
 63
     7
421
 16777215
 74
     1
 91
        4
 64
     7
 65
   257
 75
     1
175
     1
 42
1.0
 92
        8
 66
     7
 43
1.0
 76
     1
 77
     6
 78
     2
 67
     7
 79
     5
170
     0
171
     0
290
     0
174
     0
 93
        1
 44
50.0
173
     0
291
     1
 45
0.0
1001
ACAD
1000
AcDbSavedByObjectVersion
1070
     0
  0
VISUALSTYLE
  5
24F
102
{ACAD_REACTORS
330
30
102
}
330
30
100
AcDbVisualStyle
  2
ColorChange
 70
    16
 71
     2
 72
     2
 73
     3
 90
        0
 40
-0.6
 41
-30.0
 62
     5
 63
     8
421
  8421504
 74
     1
 91
        4
 64
     7
 65
   257
 75
     1
175
     1
 42
1.0
 92
        8
 66
     8
424
  8421504
 43
1.0
 76
     1
 77
     6
 78
     2
 67
     7
 79
     5
170
     0
171
     0
290
     0
174
     0
 93
        1
 44
0.0
173
     0
291
     1
 45
0.0
1001
ACAD
1000
AcDbSavedByObjectVersion
1070
     0
  0
VISUALSTYLE
  5
249
102
{ACAD_REACTORS
330
30
102
}
330
30
100
AcDbVisualStyle
  2
Conceptual
 70
     9
 71
     3
 72
     2
 73
     0
 90
        0
 40
-0.6
 41
-30.0
 62
     5
 63
     7
421
 16777215
 74
     2
 91
        2
 64
     7
 65
   257
 75
     1
175
     1
 42
40.0
 92
        8
 66
     7
 43
1.0
 76
     1
 77
     6
 78
     2
 67
     7
 79
     3
170
     0
171
     0
290
     0
174
     0
 93
        1
 44
0.0
173
     0
291
     0
 45
0.0
1001
ACAD
1000
AcDbSavedByObjectVersion
1070
     0
  0
VISUALSTYLE
  5
24A
102
{ACAD_REACTORS
330
30
102
}
330
30
100
AcDbVisualStyle
  2
Dim
 70
    11
 71
     2
 72
     2
 73
     0
 90
        0
 40
-0.6
 41
-30.0
 62
     5
 63
     7
421
 16777215
 74
     1
 91
        4
 64
     7
 65
   257
 75
     1
175
     1
 42
1.0
 92
        8
 66
     7
 43
1.0
 76
     1
 77
     6
 78
     2
 67
     7
 79
     5
170
     0
171
     0
290
     0
174
     0
 93
        1
 44
-50.0
173
     0
291
     1
 45
0.0
1001
ACAD
1000
AcDbSavedByObjectVersion
1070
     0
  0
VISUALSTYLE
  5
24E
102
{ACAD_REACTORS
330
30
102
}
330
30
100
AcDbVisualStyle
  2
Facepattern
 70
    15
 71
     2
 72
     2
 73
     0
 90
        0
 40
-0.6
 41
-30.0
 62
     5
 63
     7
421
 16777215
 74
     1
 91
        4
 64
     7
 65
   257
 75
     1
175
     1
 42
1.0
 92
        8
 66
     7
 43
1.0
 76
     1
 77
     6
 78
     2
 67
     7
 79
     5
170
     0
171
     0
290
     0
174
     0
 93
        1
 44
0.0
173
     0
291
     1
 45
0.0
1001
ACAD
1000
AcDbSavedByObjectVersion
1070
     0
  0
VISUALSTYLE
  5
243
102
{ACAD_REACTORS
330
30
102
}
330
30
100
AcDbVisualStyle
  2
Flat
 70
     0
 71
     2
 72
     1
 73
     1
 90
        2
 40
-0.6
 41
30.0
 62
     5
 63
     7
421
 16777215
 74
     0
 91
        4
 64
     7
 65
   257
 75
     1
175
     1
 42
1.0
 92
        8
 66
     7
 43
1.0
 76
     1
 77
     6
 78
     2
 67
     7
 79
     5
170
     0
171
     0
290
     0
174
     0
 93
       13
 44
0.0
173
     0
291
     1
 45
0.0
1001
ACAD
1000
AcDbSavedByObjectVersion
1070
     0
  0
VISUALSTYLE
  5
244
102
{ACAD_REACTORS
330
30
102
}
330
30
100
AcDbVisualStyle
  2
FlatWithEdges
 70
     1
 71
     2
 72
     1
 73
     1
 90
        2
 40
-0.6
 41
30.0
 62
     5
 63
     7
421
 16777215
 74
     1
 91
        4
 64
     7
 65
   257
 75
     1
175
     1
 42
1.0
 92
        0
 66
   257
 43
1.0
 76
     1
 77
     6
 78
     2
 67
     7
 79
     5
170
     0
171
     0
290
     0
174
     0
 93
       13
 44
0.0
173
     0
291
     1
 45
0.0
1001
ACAD
1000
AcDbSavedByObjectVersion
1070
     0
  0
VISUALSTYLE
  5
245
102
{ACAD_REACTORS
330
30
102
}
330
30
100
AcDbVisualStyle
  2
Gouraud
 70
     2
 71
     2
 72
     2
 73
     1
 90
        2
 40
-0.6
 41
30.0
 62
     5
 63
     7
421
 16777215
 74
     0
 91
        4
 64
     7
 65
   257
 75
     1
175
     1
 42
1.0
 92
        0
 66
     7
 43
1.0
 76
     1
 77
     6
 78
     2
 67
     7
 79
     5
170
     0
171
     0
290
     0
174
     0
 93
       13
 44
0.0
173
     0
291
     1
 45
0.0
1001
ACAD
1000
AcDbSavedByObjectVersion
1070
     0
  0
VISUALSTYLE
  5
246
102
{ACAD_REACTORS
330
30
102
}
330
30
100
AcDbVisualStyle
  2
GouraudWithEdges
 70
     3
 71
     2
 72
     2
 73
     1
 90
        2
 40
-0.6
 41
30.0
 62
     5
 63
     7
421
 16777215
 74
     1
 91
        4
 64
     7
 65
   257
 75
     1
175
     1
 42
1.0
 92
        0
 66
   257
 43
1.0
 76
     1
 77
     6
 78
     2
 67
     7
 79
     5
170
     0
171
     0
290
     0
174
     0
 93
       13
 44
0.0
173
     0
291
     1
 45
0.0
1001
ACAD
1000
AcDbSavedByObjectVersion
1070
     0
  0
VISUALSTYLE
  5
24D
102
{ACAD_REACTORS
330
30
102
}
330
30
100
AcDbVisualStyle
  2
Linepattern
 70
    14
 71
     2
 72
     2
 73
     0
 90
        0
 40
-0.6
 41
-30.0
 62
     5
 63
     7
421
 16777215
 74
     1
 91
        4
 64
     7
 65
   257
 75
     7
175
     7
 42
1.0
 92
        8
 66
     7
 43
1.0
 76
     1
 77
     6
 78
     2
 67
     7
 79
     5
170
     0
171
     0
290
     0
174
     0
 93
        1
 44
0.0
173
     0
291
     1
 45
0.0
1001
ACAD
1000
AcDbSavedByObjectVersion
1070
     0
  0
VISUALSTYLE
  5
52
102
{ACAD_REACTORS
330
30
102
}
330
30
100
AcDbVisualStyle
  2
Realistic
 70
     8
 71
     2
 72
     2
 73
     0
 90
        0
 40
-0.6
 41
-30.0
 62
     5
 63
     7
 74
     1
 91
        0
 64
     7
 65
   257
 75
     1
175
     1
 42
1.0
 92
        8
 66
     8
 43
1.0
 76
     1
 77
     6
 78
     2
 67
     7
 79
     5
170
     0
171
     0
290
     0
174
     0
 93
       13
 44
0.0
173
     0
291
     0
 45
0.0
1001
ACAD
1000
AcDbSavedByObjectVersion
1070
     0
  0
VISUALSTYLE
  5
24C
102
{ACAD_REACTORS
330
30
102
}
330
30
100
AcDbVisualStyle
  2
Thicken
 70
    13
 71
     2
 72
     2
 73
     0
 90
        0
 40
-0.6
 41
-30.0
 62
     5
 63
     7
421
 16777215
 74
     1
 91
        4
 64
     7
 65
   257
 75
     1
175
     1
 42
1.0
 92
       12
 66
     7
 43
1.0
 76
     1
 77
     6
 78
     2
 67
     7
 79
     5
170
     0
171
     0
290
     0
174
     0
 93
        1
 44
0.0
173
     0
291
     1
 45
0.0
1001
ACAD
1000
AcDbSavedByObjectVersion
1070
     0
  0
DICTIONARYVAR
  5
23E
102
{ACAD_REACTORS
330
23B
102
}
330
23B
100
DictionaryVariables
280
     0
  1
1:1
  0
DICTIONARYVAR
  5
23D
102
{ACAD_REACTORS
330
23B
102
}
330
23B
100
DictionaryVariables
280
     0
  1
STANDARD
  0
DICTIONARYVAR
  5
23C
102
{ACAD_REACTORS
330
23B
102
}
330
23B
100
DictionaryVariables
280
     0
  1
STANDARD
  0
DICTIONARYVAR
  5
240
102
{ACAD_REACTORS
330
23B
102
}
330
23B
100
DictionaryVariables
280
     0
  1
1
  0
DICTIONARYVAR
  5
241
102
{ACAD_REACTORS
330
23B
102
}
330
23B
100
DictionaryVariables
280
     0
  1
15
  0
DICTIONARYVAR
  5
23F
102
{ACAD_REACTORS
330
23B
102
}
330
23B
100
DictionaryVariables
280
     0
  1
0
  0
DICTIONARYVAR
  5
256
102
{ACAD_REACTORS
330
23B
102
}
330
23B
100
DictionaryVariables
280
     0
  1
1
  0
DICTIONARY
  5
1D
330
1C
100
AcDbDictionary
280
     1
281
     1
  3
ADSK_XREC_LAYOUTTHUMBNAIL
360
1E
  0
DICTIONARY
  5
42
330
41
100
AcDbDictionary
280
     1
281
     1
  3
ACAD_XREC_ROUNDTRIP
360
25A
  3
BUMPTILE
360
43
  3
DIFFUSETILE
360
44
  3
OPACITYTILE
360
45
  3
REFLECTIONTILE
360
46
  3
REFRACTIONTILE
360
47
  3
SPECULARTILE
360
48
  0
DICTIONARY
  5
3A
330
39
100
AcDbDictionary
280
     1
281
     1
  3
ACAD_XREC_ROUNDTRIP
360
259
  3
BUMPTILE
360
3B
  3
DIFFUSETILE
360
3C
  3
OPACITYTILE
360
3D
  3
REFLECTIONTILE
360
3E
  3
REFRACTIONTILE
360
3F
  3
SPECULARTILE
360
40
  0
DICTIONARY
  5
E
330
C
100
AcDbDictionary
280
     1
281
     1
  3
ACAD_XREC_ROUNDTRIP
360
258
  3
BUMPTILE
360
F
  3
DIFFUSETILE
360
10
  3
OPACITYTILE
360
11
  3
REFLECTIONTILE
360
12
  3
REFRACTIONTILE
360
13
  3
SPECULARTILE
360
14
  0
DICTIONARY
  5
51
330
50
100
AcDbDictionary
280
     1
281
     1
  3
ACAD_ROUNDTRIP_2008_TABLESTYLE_CELLSTYLEMAP
360
257
  3
ACAD_XREC_ROUNDTRIP
360
25B
  0
XRECORD
  5
1E
102
{ACAD_REACTORS
330
1D
102
}
330
1D
100
AcDbXrecord
280
     1
310
28000000B40000007F00000001000800000000004C590000000000000000000000010000000000000000000000000000FFFFFF000000000000000000000000000000000000000000000000000000000000000000330000006600000099000000CC000000FF00000000330000333300006633000099330000CC330000FF3300
310
0000660000336600006666000099660000CC660000FF66000000990000339900006699000099990000CC990000FF99000000CC000033CC000066CC000099CC0000CCCC0000FFCC000000FF000033FF000066FF000099FF0000CCFF0000FFFF000000003300330033006600330099003300CC003300FF003300003333003333
310
33006633330099333300CC333300FF33330000663300336633006666330099663300CC663300FF66330000993300339933006699330099993300CC993300FF99330000CC330033CC330066CC330099CC3300CCCC3300FFCC330000FF330033FF330066FF330099FF3300CCFF3300FFFF330000006600330066006600660099
310
006600CC006600FF00660000336600333366006633660099336600CC336600FF33660000666600336666006666660099666600CC666600FF66660000996600339966006699660099996600CC996600FF99660000CC660033CC660066CC660099CC6600CCCC6600FFCC660000FF660033FF660066FF660099FF6600CCFF6600
310
FFFF660000009900330099006600990099009900CC009900FF00990000339900333399006633990099339900CC339900FF33990000669900336699006666990099669900CC669900FF66990000999900339999006699990099999900CC999900FF99990000CC990033CC990066CC990099CC9900CCCC9900FFCC990000FF99
310
0033FF990066FF990099FF9900CCFF9900FFFF99000000CC003300CC006600CC009900CC00CC00CC00FF00CC000033CC003333CC006633CC009933CC00CC33CC00FF33CC000066CC003366CC006666CC009966CC00CC66CC00FF66CC000099CC003399CC006699CC009999CC00CC99CC00FF99CC0000CCCC0033CCCC0066CC
310
CC0099CCCC00CCCCCC00FFCCCC0000FFCC0033FFCC0066FFCC0099FFCC00CCFFCC00FFFFCC000000FF003300FF006600FF009900FF00CC00FF00FF00FF000033FF003333FF006633FF009933FF00CC33FF00FF33FF000066FF003366FF006666FF009966FF00CC66FF00FF66FF000099FF003399FF006699FF009999FF00CC
310
99FF00FF99FF0000CCFF0033CCFF0066CCFF0099CCFF00CCCCFF00FFCCFF0000FFFF0033FFFF0066FFFF0099FFFF00CCFFFF00FFFFFF00000000000D0D0D001A1A1A00282828003535350043434300505050005D5D5D006B6B6B00787878008686860093939300A1A1A100AEAEAE00BBBBBB00C9C9C900D6D6D600E4E4E400
310
F1F1F100FFFFFF0000000000000000000000000000000000000000000000000000000000000000000000000000000000F5F5F5F5F5F5F5F5F5F5F5F5F5F5F5F5F5F5F5F5F5F5F5F5F5F5F5F5F5F5F5F5F5F5F5F5F5F5F5F5F5F5F5F5F5F5F5F5F5F5F5F5F5F5F5F5F5F5F5F5F5F5F5F5F5F5F5F5F5F5F5F5F5F5F5F5F5F5F5
310
F5F5F5F5F5F5F5F5F5F5F5F5F5F5F5F5F5F5F5F5F5F5F5F5F5F5F5F5F5F5F5F5F5F5F5F5F5F5F5F5F5F5F5F5F5F5F5F5F5F5F5F5F5F5F5F5F5F5F5F5F5F5F5F5F5F5F5F5F5F5F5F5F5F5F5F5F5F5F5F5F5F5F5F5F5F5F5F5F5F5F5F5F5F5F5F5F5F5F5F5EFF5E2E2E2E2E2E2E2E2E2E2E2E2E2E2E2E2E2E2E2E2E2E2E2E2E2
310
E2E2E2E2E2E2E2E2E2E2E2E2E2E2E2E2E2E2E2E2E2E2E2E2E2E2E2E2E2E2E2E2E2E2E2E2E2E2E2E2E2E2E2E2E2E2E2E2E2E2E2E2E2E2E2E2E2E2E2E2E2E2E2E2E2E2E2E2E2E2E2E2E2E2E2E2E2E2E2E2E2E2E2E2E2E2E2E2E2E2E2E2E2E2E2E2E2E2E2E2E2E2E2E2E2E2E2E2E2E2E2E2E2E2E2E2E2E2E2E2E2E2E2E2E2E2E2
310
E2E2E2E2E2E2E2E2E2E2E2E2E2E2E2E2E2E2E2E2E2E2E2E2F5F5EFF5E2E2E2E2E2E2E2E2E2E2E2E2E2E2E2E2E2E2E2E2E2E2E2E2E2E2E2E2E2E2E2E2E2E2E2E2E2E2E2E2E2E2E2E2E2E2E2E2E2E2E2E2E2E2E2E2E2E2E2E2E2E2E2E2E2E2E2E2E2E2E2E2E2E2E2E2E2E2E2E2E2E2E2E2E2E2E2E2E2E2E2E2E2E2E2E2E2E2E2
310
E2E2E2E2E2E2E2E2E2E2E2E2E2E2E2E2E2E2E2E2E2E2E2E2E2E2E2E2E2E2E2E2E2E2E2E2E2E2E2E2E2E2E2E2E2E2E2E2E2E2E2E2E2E2E2E2E2E2E2E2E2E2E2E2E2E2E2E2E2E2E2E2E2E2E2E2E2F5F5EFF5E2E2E2E2E2E2E2E2E2E2E2E2E2E2E2E2E2E2E2E2E2E2E2E2E2E2E2E2E2E2E2E2E2E2E2E2E2E2E2E2E2E2E2E2E2E2
310
E2E2E2E2E2E2E2E2E2E2E2E2E2E2E2E2E2E2E2E2E2E2E2E2E2E2E2E2E2E2E2E2E2E2E2E2E2E2E2E2E2E2E2E2E2E2E2E2E2E2E2E2E2E2E2E2E2E2E2E2E2E2E2E2E2E2E2E2E2E2E2E2E2E2E2E2E2E2E2E2E2E2E2E2E2E2E2E2E2E2E2E2E2E2E2E2E2E2E2E2E2E2E2E2E2E2E2E2E2E2E2E2E2E2E2E2E2E2E2E2E2E2E2E2E2E2E2
310
E2E2E2F5F5EFF5E2E2F5F5F5F5F5F5F5F5E2E2E2E2E2E2E2E2E2F5F5F5F5F5F5F5F5F5F5F5F5F5F5F5F5E2E2E2E2E2E2E2E2E2F5F5F5F5F5F5F5F5F5F5F5F5F5F5F5E2E2E2E2E2E2E2E2E2F5F5F5F5F5F5F5F5F5F5F5F5F5F5F5F5E2E2E2E2E2E2E2E2F5F5F5F5F5F5F5F5F5F5F5F5F5F5F5F5E2E2E2E2E2E2E2E2E2F5F5F5
310
F5F5F5F5F5F5F5F5F5F5F5F5E2E2E2E2E2E2E2E2E2F5F5F5F5F5F5F5F5F5F5F5F5F5F5F5F5E2E2E2E2E2E2E2E2E2F5F5F5F5F5F5F5F5E2E2F5F5EFF5E2E2F5E2E2E2E2E2E2E2E2E2E2E2E2E2E2E2E2E2E2E2E2E2E2E2E2E2E2E2E2E2E2E2E2E2E2E2E2E2E2E2E2E2E2E2E2E2E2E2E2E2E2E2E2E2E2E2E2E2E2E2E2E2E2E2E2
310
E2E2E2E2E2E2E2E2E2E2E2E2E2E2E2E2E2E2E2E2E2E2E2E2E2E2E2E2E2E2E2E2E2E2E2E2E2E2E2E2E2E2E2E2E2E2E2E2E2E2E2E2E2E2E2E2E2E2E2E2E2E2E2E2E2E2E2E2E2E2E2E2E2E2E2E2E2E2E2E2E2E2E2E2E2E2E2E2E2E2E2E2E2E2E2E2E2E2E2E2E2E2E2E2E2E2F5E2E2F5F5EFF5E2E2F5E2E2E2E2E2E2E2E2E2E2E2
310
E2E2E2E2E2E2E2E2E2E2E2E2E2E2E2E2E2E2E2E2E2E2E2E2E2E2E2E2E2E2E2E2E2E2E2E2E2E2E2E2E2E2E2E2E2E2E2E2E2E2E2E2E2E2E2E2E2E2E2E2E2E2E2E2E2E2E2E2E2E2E2E2E2E2E2E2E2E2E2E2E2E2E2E2E2E2E2E2E2E2E2E2E2E2E2E2E2E2E2E2E2E2E2E2E2E2E2E2E2E2E2E2E2E2E2E2E2E2E2E2E2E2E2E2E2E2E2
310
E2E2E2E2E2E2E2E2E2E2E2E2E2E2E2E2E2E2E2E2E2E2E2E2E2E2E2E2E2E2E2E2F5E2E2F5F5EFF5E2E2F5E2E2E2E2E2E2E2E2E2E2E2E2E2E2E2E2E2E2E2E2E2E2E2E2E2E2E2E2E2E2E2E2E2E2E2E2E2E2E2E2E2E2E2E2E2E2E2E2E2E2E2E2E2E2E2E2E2E2E2E2E2E2E2E2E2E2E2E2E2E2E2E2E2E2E2E2E2E2E2E2E2E2E2E2E2
310
E2E2E2E2E2E2E2E2E2E2E2E2E2E2E2E2E2E2E2E2E2E2E2E2E2E2E2E2E2E2E2E2E2E2E2E2E2E2E2E2E2E2E2E2E2E2E2E2E2E2E2E2E2E2E2E2E2E2E2E2E2E2E2E2E2E2E2E2E2E2E2E2E2E2E2E2E2E2E2E2E2E2E2E2E2F5E2E2F5F5EFF5E2E2F5E2E2E2E2E2E2E2E2E2E2E2E2E2E2E2E2E2E2E2E2E2E2E2E2E2E2E2E2E2E2E2E2
310
E2E2E2E2E2E2E2E2E2E2E2E2E2E2E2E2E2E2E2E2E2E2E2E2E2E2E2E2E2E2E2E2E2E2E2E2E2E2E2E2E2E2E2E2E2E2E2E2E2E2E2E2E2E2E2E2E2E2E2E2E2E2E2E2E2E2E2E2E2E2E2E2E2E2E2E2E2E2E2E2E2E2E2E2E2E2E2E2E2E2E2E2E2E2E2E2E2E2E2E2E2E2E2E2E2E2E2E2E2E2E2E2E2E2E2E2E2E2E2E2E2E2E2E2E2E2E2
310
E2E2E2E2E2E2E2E2E2E2E2F5E2E2F5F5EFF5E2E2F5E2E2E2E2E2E2E2E2E2E2E2E2E2E2E2E2E2E2E2E2E2E2E2E2E2E2E2E2E2E2E2E2E2E2E2E2E2E2E2E2E2E2E2E2E2E2E2E2E2E2E2E2E2E2E2E2E2E2E2E2E2E2E2E2E2E2E2E2E2E2E2E2E2E2E2E2E2E2E2E2E2E2E2E2E2E2E2E2E2E2E2E2E2E2E2E2E2E2E2E2E2E2E2E2E2E2
310
E2E2E2E2E2E2E2E2E2E2E2E2E2E2E2E2E2E2E2E2E2E2E2E2E2E2E2E2E2E2E2E2E2E2E2E2E2E2E2E2E2E2E2E2E2E2E2E2E2E2E2E2E2E2E2E2E2E2E2E2E2E2E2E2F5E2E2F5F5EFF5E2E2F5E2E2E2E2E2E2E2E2E2E2E2E2E2E2E2E2E2E2E2E2E2E2E2E2E2E2E2E2E2E2E2E2E2E2E2E2E2E2E2E2E2E2E2E2E2E2E2E2E2E2E2E2E2
310
E2E2E2E2E2E2E2E2E2E2E2E2E2E2E2E2E2E2E2E2E2E2E2E2E2E2E2E2E2E2E2E2E2E2E2E2E2E2E2E2E2E2E2E2E2E2E2E2E2E2E2E2E2E2E2E2E2E2E2E2E2E2E2E2E2E2E2E2E2E2E2E2E2E2E2E2E2E2E2E2E2E2E2E2E2E2E2E2E2E2E2E2E2E2E2E2E2E2E2E2E2E2E2E2E2E2E2E2E2E2E2E2E2E2E2E2E2F5E2E2F5F5EFF5E2E2F5
310
E2E2E2E2E2E2E2E2E2E2E2E2E2E2E2E2E2E2E2E2E2E2E2E2E2E2E2E2E2E2E2E2E2E2E2E2E2E2E2E2E2E2E2E2E2E2E2E2E2E2E2E2E2E2E2E2E2E2E2E2E2E2E2E2E2E2E2E2E2E2E2E2E2E2E2E2E2E2E2E2E2E2E2E2E2E2E2E2E2E2E2E2E2E2E2E2E2E2E2E2E2E2E2E2E2E2E2E2E2E2E2E2E2E2E2E2E2E2E2E2E2E2E2E2E2E2E2
310
E2E2E2E2E2E2E2E2E2E2E2E2E2E2E2E2E2E2E2E2E2E2E2E2E2E2E2E2E2E2E2E2E2E2E2E2E2E2E2E2E2E2E2F5E2E2F5F5EFF5E2E2E2E2E2E2E2E2E2E2E2E2E2E2E2E2E2E2E2E2E2E2E2E2E2E2E2E2E2E2E2E2E2E2E2E2E2E2E2E2E2E2E2E2E2E2E2E2E2E2E2E2E2E2E2E2E2E2E2E2E2E2E2E2E2E2E2E2E2E2E2E2E2E2E2E2E2
310
E2E2E2E2E2E2E2E2E2E2E2E2E2E2E2E2E2E2E2E2E2E2E2E2E2E2E2E2E2E2E2E2E2E2E2E2E2E2E2E2E2E2E2E2E2E2E2E2E2E2E2E2E2E2E2E2E2E2E2E2E2E2E2E2E2E2E2E2E2E2E2E2E2E2E2E2E2E2E2E2E2E2E2E2E2E2E2E2E2E2E2E2E2E2E2E2E2E2E2F5F5EFF5E2E2E2E2E2E2E2E2E2E2E2E2E2E2E2E2E2E2E2E2E2E2E2E2
310
E2E2E2E2E2E2E2E2E2E2E2E2E2E2E2E2E2E2E2E2E2E2E2E2E2E2E2E2E2E2E2E2E2E2E2E2E2E2E2E2E2E2E2E2E2E2E2E2E2E2E2E2E2E2E2E2E2E2E2E2E2E2E2E2E2E2E2E2E2E2E2E2E2E2E2E2E2E2E2E2E2E2E2E2E2E2E2E2E2E2E2E2E2E2E2E2E2E2E2E2E2E2E2E2E2E2E2E2E2E2E2E2E2E2E2E2E2E2E2E2E2E2E2E2E2E2E2
310
E2E2E2E2E2E2E2E2E2E2E2E2E2E2E2E2E2E2E2E2E2E2E2E2E2F5F5EFF5E2E2E2E2E2E2E2E2E2E2E2E2E2E2E2E2E2E2E2E2E2E2E2E2E2E2E2E2E2E2E2E2E2E2E2E2E2E2E2E2E2E2E2E2E2E2E2E2E2E2E2E2E2E2E2E2E2E2E2E2E2E2E2E2E2E2E2E2E2E2E2E2E2E2E2E2E2E2E2E2E2E2E2E2E2E2E2E2E2E2E2E2E2E2E2E2E2E2
310
E2E2E2E2E2E2E2E2E2E2E2E2E2E2E2E2E2E2E2E2E2E2E2E2E2E2E2E2E2E2E2E2E2E2E2E2E2E2E2E2E2E2E2E2E2E2E2E2E2E2E2E2E2E2E2E2E2E2E2E2E2E2E2E2E2E2E2E2E2E2E2E2E2E2E2E2E2E2F5F5EFF5E2E2E2E2E2E2E2E2E2E2E2E2E2E2E2E2E2E2E2E2E2E2E2E2E2E2E2E2E2E2E2E2E2E2E2E2E2E2E2E2E2E2E2E2E2
310
E2E2E2E2E2E2E2E2E2E2E2E2E2E2E2E2E2E2E2E2E2E2E2E2E2E2E2E2E2E2E2E2E2E2E2E2E2E2E2E2E2E2E2E2E2E2E2E2E2E2E2E2E2E2E2E2E2E2E2E2E2E2E2E2E2E2E2E2E2E2E2E2E2E2E2E2E2E2E2E2E2E2E2E2E2E2E2E2E2E2E2E2E2E2E2E2E2E2E2E2E2E2E2E2E2E2E2E2E2E2E2E2E2E2E2E2E2E2E2E2E2E2E2E2E2E2E2
310
E2E2E2E2F5F5EFF5E2E2E2E2E2E2E2E2E2E2E2E2E2E2E2E2E2E2E2E2E2E2E2E2E2E2E2E2E2E2E2E2E2E2E2E2E2E2E2E2E2E2E2E2E2E2E2E2E2E2E2E2E2E2E2E2E2E2E2E2E2E2E2E2E2E2E2E2E2E2E2E2E2E2E2E2E2E2E2E2E2E2E2E2E2E2E2E2E2E2E2E2E2E2E2E2E2E2E2E2E2E2E2E2E2E2E2E2E2E2E2E2E2E2E2E2E2E2E2
310
E2E2E2E2E2E2E2E2E2E2E2E2E2E2E2E2E2E2E2E2E2E2E2E2E2E2E2E2E2E2E2E2E2E2E2E2E2E2E2E2E2E2E2E2E2E2E2E2E2E2E2E2E2E2E2E2E2F5F5EFF5E2E2E2E2E2E2E2E2E2E2E2E2E2E2E2E2E2E2E2E2E2E2E2E2E2E2E2E2E2E2E2E2E2E2E2E2E2E2E2E2E2E2E2E2E2E2E2E2E2E2E2E2E2E2E2E2E2E2E2E2E2E2E2E2E2E2
310
E2E2E2E2E2E2E2E2E2E2E2E2E2E2E2E2E2E2E2E2E2E2E2E2E2E2E2E2E2E2E2E2E2E2E2E2E2E2E2E2E2E2E2E2E2E2E2E2E2E2E2E2E2E2E2E2E2E2E2E2E2E2E2E2E2E2E2E2E2E2E2E2E2E2E2E2E2E2E2E2E2E2E2E2E2E2E2E2E2E2E2E2E2E2E2E2E2E2E2E2E2E2E2E2E2E2E2E2E2E2F5F5EFF5E2E2E2E2E2E2E2E2E2E2E2E2E2
310
E2E2E2E2E2E2E2E2E2E2E2E2E2E2E2E2E2E2E2E2E2E2E2E2E2E2E2E2E2E2E2E2E2E2E2E2E2E2E2E2E2E2E2E2E2E2E2E2E2E2E2E2E2E2E2E2E2E2E2E2E2E2E2E2E2E2E2E2E2E2E2E2E2E2E2E2E2E2E2E2E2E2E2E2E2E2E2E2E2E2E2E2E2E2E2E2E2E2E2E2E2E2E2E2E2E2E2E2E2E2E2E2E2E2E2E2E2E2E2E2E2E2E2E2E2E2E2
310
E2E2E2E2E2E2E2E2E2E2E2E2E2E2E2E2E2E2E2E2E2E2E2E2E2E2E2E2E2E2E2E2E2E2E2E2F5F5EFF5E2E2E2E2E2E2E2E2E2E2E2E2E2E2E2E2E2E2E2E2E2E2E2E2E2E2E2E2E2E2E2E2E2E2E2E2E2E2E2E2E2E2E2E2E2E2E2E2E2E2E2E2E2E2E2E2E2E2E2E2E2E2E2E2E2E2E2E2E2E2E2E2E2E2E2E2E2E2E2E2E2E2E2E2E2E2E2
310
E2E2E2E2E2E2E2E2E2E2E2E2E2E2E2E2E2E2E2E2E2E2E2E2E2E2E2E2E2E2E2E2E2E2E2E2E2E2E2E2E2E2E2E2E2E2E2E2E2E2E2E2E2E2E2E2E2E2E2E2E2E2E2E2E2E2E2E2E2E2E2E2E2E2E2E2E2E2E2E2E2E2E2E2E2E2E2E2E2F5F5EFF5E2E2E2E2E2E2E2E2E2E2E2E2E2E2E2E2E2E2E2E2E2E2E2E2E2E2E2E2E2E2E2E2E2E2
310
E2E2E2E2E2E2E2E2E2E2E2E2E2E2E2E2E2E2E2E2E2E2E2E2E2E2E2E2E2E2E2E2E2E2E2E2E2E2E2E2E2E2E2E2E2E2E2E2E2E2E2E2E2E2E2E2E2E2E2E2E2E2E2E2E2E2E2E2E2E2E2E2E2E2E2E2E2E2E2E2E2E2E2E2E2E2E2E2E2E2E2E2E2E2E2E2E2E2E2E2E2E2E2E2E2E2E2E2E2E2E2E2E2E2E2E2E2E2E2E2E2E2E2E2E2E2E2
310
E2E2E2E2E2E2E2E2E2E2E2E2E2E2E2F5F5EFF5E2E2F5E2E2E2E2E2E2E2E2E2E2E2E2E2E2E2E2E2E2E2E2E2E2E2E2E2E2E2E2E2E2E2E2E2E2E2E2E2E2E2E2E2E2E2E2E2E2E2E2E2E2E2E2E2E2E2E2E2E2E2E2E2E2E2E2E2E2E2E2E2E2E2E2E2E2E2E2E2E2E2E2E2E2E2E2E2E2E2E2E2E2E2E2E2E2E2E2E2E2E2E2E2E2E2E2E2
310
E2E2E2E2E2E2E2E2E2E2E2E2E2E2E2E2E2E2E2E2E2E2E2E2E2E2E2E2E2E2E2E2E2E2E2E2E2E2E2E2E2E2E2E2E2E2E2E2E2E2E2E2E2E2E2E2E2E2E2E2E2E2E2E2E2F5E2E2F5F5EFF5E2E2F5E2E2E2E2E2E2E2E2E2E2E2E2E2E2E2E2E2E2E2E2E2E2E2E2E2E2E2E2E2E2E2E2E2E2E2E2E2E2E2E2E2E2E2E2E2E2E2E2E2E2E2E2
310
E2E2E2E2E2E2E2E2E2E2E2E2E2E2E2E2E2E2E2E2E2E2E2E2E2E2E2E2E2E2E2E2E2E2E2E2E2E2E2E2E2E2E2E2E2E2E2E2E2E2E2E2E2E2E2E2E2E2E2E2E2E2E2E2E2E2E2E2E2E2E2E2E2E2E2E2E2E2E2E2E2E2E2E2E2E2E2E2E2E2E2E2E2E2E2E2E2E2E2E2E2E2E2E2E2E2E2E2E2E2E2E2E2E2E2E2E2E2F5E2E2F5F5EFF5E2E2
310
F5E2E2E2E2E2E2E2E2E2E2E2E2E2E2E2E2E2E2E2E2E2E2E2E2E2E2E2E2E2E2E2E2E2E2E2E2E2E2E2E2E2E2E2E2E2E2E2E2E2E2E2E2E2E2E2E2E2E2E2E2E2E2E2E2E2E2E2E2E2E2E2E2E2E2E2E2E2E2E2E2E2E2E2E2E2E2E2E2E2E2E2E2E2E2E2E2E2E2E2E2E2E2E2E2E2E2E2E2E2E2E2E2E2E2E2E2E2E2E2E2E2E2E2E2E2E2
310
E2E2E2E2E2E2E2E2E2E2E2E2E2E2E2E2E2E2E2E2E2E2E2E2E2E2E2E2E2E2E2E2E2E2E2E2E2E2E2E2E2E2E2E2F5E2E2F5F5EFF5E2E2F5E2E2E2E2E2E2E2E2E2E2E2E2E2E2E2E2E2E2E2E2E2E2E2E2E2E2E2E2E2E2E2E2E2E2E2E2E2E2E2E2E2E2E2E2E2E2E2E2E2E2E2E2E2E2E2E2E2E2E2E2E2E2E2E2E2E2E2E2E2E2E2E2E2
310
E2E2E2E2E2E2E2E2E2E2E2E2E2E2E2E2E2E2E2E2E2E2E2E2E2E2E2E2E2E2E2E2E2E2E2E2E2E2E2E2E2E2E2E2E2E2E2E2E2E2E2E2E2E2E2E2E2E2E2E2E2E2E2E2E2E2E2E2E2E2E2E2E2E2E2E2E2E2E2E2E2E2E2E2E2E2E2E2E2E2E2E2E2E2E2E2E2F5E2E2F5F5EFF5E2E2F5E2E2E2E2E2E2E2E2E2E2E2E2E2E2E2E2E2E2E2E2
310
E2E2E2E2E2E2E2E2E2E2E2E2E2E2E2E2E2E2E2E2E2E2E2E2E2E2E2E2E2E2E2E2E2E2E2E2E2E2E2E2E2E2E2E2E2E2E2E2E2E2E2E2E2E2E2E2E2E2E2E2E2E2E2E2E2E2E2E2E2E2E2E2E2E2E2E2E2E2E2E2E2E2E2E2E2E2E2E2E2E2E2E2E2E2E2E2E2E2E2E2E2E2E2E2E2E2E2E2E2E2E2E2E2E2E2E2E2E2E2E2E2E2E2E2E2E2E2
310
E2E2E2E2E2E2E2E2E2E2E2E2E2E2E2E2E2E2E2E2E2E2E2F5E2E2F5F5EFF5E2E2F5E2E2E2E2E2E2E2E2E2E2E2E2E2E2E2E2E2E2E2E2E2E2E2E2E2E2E2E2E2E2E2E2E2E2E2E2E2E2E2E2E2E2E2E2E2E2E2E2E2E2E2E2E2E2E2E2E2E2E2E2E2E2E2E2E2E2E2E2E2E2E2E2E2E2E2E2E2E2E2E2E2E2E2E2E2E2E2E2E2E2E2E2E2E2
310
E2E2E2E2E2E2E2E2E2E2E2E2E2E2E2E2E2E2E2E2E2E2E2E2E2E2E2E2E2E2E2E2E2E2E2E2E2E2E2E2E2E2E2E2E2E2E2E2E2E2E2E2E2E2E2E2E2E2E2E2E2E2E2E2E2E2E2E2E2E2E2E2E2E2E2E2F5E2E2F5F5EFF5E2E2F5E2E2E2E2E2E2E2E2E2E2E2E2E2E2E2E2E2E2E2E2E2E2E2E2E2E2E2E2E2E2E2E2E2E2E2E2E2E2E2E2E2
310
E2E2E2E2E2E2E2E2E2E2E2E2E2E2E2E2E2E2E2E2E2E2E2E2E2E2E2E2E2E2E2E2E2E2E2E2E2E2E2E2E2E2E2E2E2E2E2E2E2E2E2E2E2E2E2E2E2E2E2E2E2E2E2E2E2E2E2E2E2E2E2E2E2E2E2E2E2E2E2E2E2E2E2E2E2E2E2E2E2E2E2E2E2E2E2E2E2E2E2E2E2E2E2E2E2E2E2E2E2E2E2E2E2E2E2E2E2E2E2E2E2E2E2E2E2E2E2
310
E2E2F5E2E2F5F5EFF5E2E2F5E2E2E2E2E2E2E2E2E2E2E2E2E2E2E2E2E2E2E2E2E2E2E2E2E2E2E2E2E2E2E2E2E2E2E2E2E2E2E2E2E2E2E2E2E2E2E2E2E2E2E2E2E2E2E2E2E2E2E2E2E2E2E2E2E2E2E2E2E2E2E2E2E2E2E2E2E2E2E2E2E2E2E2E2E2E2E2E2E2E2E2E2E2E2E2E2E2E2E2E2E2E2E2E2E2E2E2E2E2E2E2E2E2E2E2
310
E2E2E2E2E2E2E2E2E2E2E2E2E2E2E2E2E2E2E2E2E2E2E2E2E2E2E2E2E2E2E2E2E2E2E2E2E2E2E2E2E2E2E2E2E2E2E2E2E2E2E2E2E2E2E2F5E2E2F5F5EFF5E2E2F5E2E2E2E2E2E2E2E2E2E2E2E2E2E2E2E2E2E2E2E2E2E2E2E2E2E2E2E2E2E2E2E2E2E2E2E2E2E2E2E2E2E2E2E2E2E2E2E2E2E2E2E2E2E2E2E2E2E2E2E2E2E2
310
E2E2E2E2E2E2E2E2E2E2E2E2E2E2E2E2E2E2E2E2E2E2E2E2E2E2E2E2E2E2E2E2E2E2E2E2E2E2E2E2E2E2E2E2E2E2E2E2E2E2E2E2E2E2E2E2E2E2E2E2E2E2E2E2E2E2E2E2E2E2E2E2E2E2E2E2E2E2E2E2E2E2E2E2E2E2E2E2E2E2E2E2E2E2E2E2E2E2E2E2E2E2E2E2E2E2E2E2F5E2E2F5F5EFF5E2E2F5E2E2E2E2E2E2E2E2E2
310
E2E2E2E2E2E2E2E2E2E2E2E2E2E2E2E2E2E2E2E2E2E2E2E2E2E2E2E2E2E2E2E2E2E2E2E2E2E2E2E2E2E2E2E2E2E2E2E2E2E2E2E2E2E2E2E2E2E2E2E2E2E2E2E2E2E2E2E2E2E2E2E2E2E2E2E2E2E2E2E2E2E2E2E2E2E2E2E2E2E2E2E2E2E2E2E2E2E2E2E2E2E2E2E2E2E2E2E2E2E2E2E2E2E2E2E2E2E2E2E2E2E2E2E2E2E2E2
310
E2E2E2E2E2E2E2E2E2E2E2E2E2E2E2E2E2E2E2E2E2E2E2E2E2E2E2E2E2E2E2E2E2E2F5E2E2F5F5EFF5E2E2F5E2E2E2E2E2E2E2E2E2E2E2E2E2E2E2E2E2E2E2E2E2E2E2E2E2E2E2E2E2E2E2E2E2E2E2E2E2E2E2E2E2E2E2E2E2E2E2E2E2E2E2E2E2E2E2E2E2E2E2E2E2E2E2E2E2E2E2E2E2E2E2E2E2E2E2E2E2E2E2E2E2E2E2
310
E2E2E2E2E2E2E2E2E2E2E2E2E2E2E2E2E2E2E2E2E2E2E2E2E2E2E2E2E2E2E2E2E2E2E2E2E2E2E2E2E2E2E2E2E2E2E2E2E2E2E2E2E2E2E2E2E2E2E2E2E2E2E2E2E2E2E2E2E2E2E2E2E2E2E2E2E2E2E2E2E2E2E2E2E2E2E2F5E2E2F5F5EFF5E2E2F5E2E2E2E2E2E2E2E2E2E2E2E2E2E2E2E2E2E2E2E2E2E2E2E2E2E2E2E2E2E2
310
E2E2E2E2E2E2E2E2E2E2E2E2E2E2E2E2E2E2E2E2E2E2E2E2E2E2E2E2E2E2E2E2E2E2E2E2E2E2E2E2E2E2E2E2E2E2E2E2E2E2E2E2E2E2E2E2E2E2E2E2E2E2E2E2E2E2E2E2E2E2E2E2E2E2E2E2E2E2E2E2E2E2E2E2E2E2E2E2E2E2E2E2E2E2E2E2E2E2E2E2E2E2E2E2E2E2E2E2E2E2E2E2E2E2E2E2E2E2E2E2E2E2E2E2E2E2E2
310
E2E2E2E2E2E2E2E2E2E2E2E2E2F5E2E2F5F5EFF5E2E2F5E2E2E2E2E2E2E2E2E2E2E2E2E2E2E2E2E2E2E2E2E2E2E2E2E2E2E2E2E2E2E2E2E2E2E2E2E2E2E2E2E2E2E2E2E2E2E2E2E2E2E2E2E2E2E2E2E2E2E2E2E2E2E2E2E2E2E2E2E2E2E2E2E2E2E2E2E2E2E2E2E2E2E2E2E2E2E2E2E2E2E2E2E2E2E2E2E2E2E2E2E2E2E2E2
310
E2E2E2E2E2E2E2E2E2E2E2E2E2E2E2E2E2E2E2E2E2E2E2E2E2E2E2E2E2E2E2E2E2E2E2E2E2E2E2E2E2E2E2E2E2E2E2E2E2E2E2E2E2E2E2E2E2E2E2E2E2E2E2E2E2E2F5E2E2F5F5EFF5E2E2F5E2E2E2E2E2E2E2E2E2E2E2E2E2E2E2E2E2E2E2E2E2E2E2E2E2E2E2E2E2E2E2E2E2E2E2E2E2E2E2E2E2E2E2E2E2E2E2E2E2E2E2
310
E2E2E2E2E2E2E2E2E2E2E2E2E2E2E2E2E2E2E2E2E2E2E2E2E2E2E2E2E2E2E2E2E2E2E2E2E2E2E2E2E2E2E2E2E2E2E2E2E2E2E2E2E2E2E2E2E2E2E2E2E2E2E2E2E2E2E2E2E2E2E2E2E2E2E2E2E2E2E2E2E2E2E2E2E2E2E2E2E2E2E2E2E2E2E2E2E2E2E2E2E2E2E2E2E2E2E2E2E2E2E2E2E2E2E2E2E2E2E2F5E2E2F5F5EFF5E2
310
E2F5E2E2E2E2E2E2E2E2E2E2E2E2E2E2E2E2E2E2E2E2E2E2E2E2E2E2E2E2E2E2E2E2E2E2E2E2E2E2E2E2E2E2E2E2E2E2E2E2E2E2E2E2E2E2E2E2E2E2E2E2E2E2E2E2E2E2E2E2E2E2E2E2E2E2E2E2E2E2E2E2E2E2E2E2E2E2E2E2E2E2E2E2E2E2E2E2E2E2E2E2E2E2E2E2E2E2E2E2E2E2E2E2E2E2E2E2E2E2E2E2E2E2E2E2E2
310
E2E2E2E2E2E2E2E2E2E2E2E2E2E2E2E2E2E2E2E2E2E2E2E2E2E2E2E2E2E2E2E2E2E2E2E2E2E2E2E2E2E2E2E2E2F5E2E2F5F5EFF5E2E2E2E2E2E2E2E2E2E2E2E2E2E2E2E2E2E2E2E2E2E2E2E2E2E2E2E2E2E2E2E2E2E2E2E2E2E2E2E2E2E2E2E2E2E2E2E2E2E2E2E2E2E2E2E2E2E2E2E2E2E2E2E2E2E2E2E2E2E2E2E2E2E2E2
310
E2E2E2E2E2E2E2E2E2E2E2E2E2E2E2E2E2E2E2E2E2E2E2E2E2E2E2E2E2E2E2E2E2E2E2E2E2E2E2E2E2E2E2E2E2E2E2E2E2E2E2E2E2E2E2E2E2E2E2E2E2E2E2E2E2E2E2E2E2E2E2E2E2E2E2E2E2E2E2E2E2E2E2E2E2E2E2E2E2E2E2E2E2E2E2E2E2E2E2E2E2F5F5EFF5E2E2E2E2E2E2E2E2E2E2E2E2E2E2E2E2E2E2E2E2E2E2
310
E2E2E2E2E2E2E2E2E2E2E2E2E2E2E2E2E2E2E2E2E2E2E2E2E2E2E2E2E2E2E2E2E2E2E2E2E2E2E2E2E2E2E2E2E2E2E2E2E2E2E2E2E2E2E2E2E2E2E2E2E2E2E2E2E2E2E2E2E2E2E2E2E2E2E2E2E2E2E2E2E2E2E2E2E2E2E2E2E2E2E2E2E2E2E2E2E2E2E2E2E2E2E2E2E2E2E2E2E2E2E2E2E2E2E2E2E2E2E2E2E2E2E2E2E2E2E2
310
E2E2E2E2E2E2E2E2E2E2E2E2E2E2E2E2E2E2E2E2E2E2E2E2E2E2E2F5F5EFF5E2E2E2E2E2E2E2E2E2E2E2E2E2E2E2E2E2E2E2E2E2E2E2E2E2E2E2E2E2E2E2E2E2E2E2E2E2E2E2E2E2E2E2E2E2E2E2E2E2E2E2E2E2E2E2E2E2E2E2E2E2E2E2E2E2E2E2E2E2E2E2E2E2E2E2E2E2E2E2E2E2E2E2E2E2E2E2E2E2E2E2E2E2E2E2E2
310
E2E2E2E2E2E2E2E2E2E2E2E2E2E2E2E2E2E2E2E2E2E2E2E2E2E2E2E2E2E2E2E2E2E2E2E2E2E2E2E2E2E2E2E2E2E2E2E2E2E2E2E2E2E2E2E2E2E2E2E2E2E2E2E2E2E2E2E2E2E2E2E2E2E2E2E2E2E2E2E2F5F5EFF5E2E2E2E2E2E2E2E2E2E2E2E2E2E2E2E2E2E2E2E2E2E2E2E2E2E2E2E2E2E2E2E2E2E2E2E2E2E2E2E2E2E2E2
310
E2E2E2E2E2E2E2E2E2E2E2E2E2E2E2E2E2E2E2E2E2E2E2E2E2E2E2E2E2E2E2E2E2E2E2E2E2E2E2E2E2E2E2E2E2E2E2E2E2E2E2E2E2E2E2E2E2E2E2E2E2E2E2E2E2E2E2E2E2E2E2E2E2E2E2E2E2E2E2E2E2E2E2E2E2E2E2E2E2E2E2E2E2E2E2E2E2E2E2E2E2E2E2E2E2E2E2E2E2E2E2E2E2E2E2E2E2E2E2E2E2E2E2E2E2E2E2
310
E2E2E2E2E2E2F5F5EFF5E2E2E2E2E2E2E2E2E2E2E2E2E2E2E2E2E2E2E2E2E2E2E2E2E2E2E2E2E2E2E2E2E2E2E2E2E2E2E2E2E2E2E2E2E2E2E2E2E2E2E2E2E2E2E2E2E2E2E2E2E2E2E2E2E2E2E2E2E2E2E2E2E2E2E2E2E2E2E2E2E2E2E2E2E2E2E2E2E2E2E2E2E2E2E2E2E2E2E2E2E2E2E2E2E2E2E2E2E2E2E2E2E2E2E2E2E2
310
E2E2E2E2E2E2E2E2E2E2E2E2E2E2E2E2E2E2E2E2E2E2E2E2E2E2E2E2E2E2E2E2E2E2E2E2E2E2E2E2E2E2E2E2E2E2E2E2E2E2E2E2E2E2E2E2E2E2E2F5F5EFF5E2E2E2E2E2E2E2E2E2E2E2E2E2E2E2E2E2E2E2E2E2E2E2E2E2E2E2E2E2E2E2E2E2E2E2E2E2E2E2E2E2E2E2E2E2E2E2E2E2E2E2E2E2E2E2E2E2E2E2E2E2E2E2E2
310
E2E2E2E2E2E2E2E2E2E2E2E2E2E2E2E2E2E2E2E2E2E2E2E2E2E2E2E2E2E2E2E2E2E2E2E2E2E2E2E2E2E2E2E2E2E2E2E2E2E2E2E2E2E2E2E2E2E2E2E2E2E2E2E2E2E2E2E2E2E2E2E2E2E2E2E2E2E2E2E2E2E2E2E2E2E2E2E2E2E2E2E2E2E2E2E2E2E2E2E2E2E2E2E2E2E2E2E2E2E2E2E2F5F5EFF5E2E2E2E2E2E2E2E2E2E2E2
310
E2E2E2E2E2E2E2E2E2E2E2E2E2E2E2E2E2E2E2E2E2E2E2E2E2E2E2E2E2E2E2E2E2E2E2E2E2E2E2E2E2E2E2E2E2E2E2E2E2E2E2E2E2E2E2E2E2E2E2E2E2E2E2E2E2E2E2E2E2E2E2E2E2E2E2E2E2E2E2E2E2E2E2E2E2E2E2E2E2E2E2E2E2E2E2E2E2E2E2E2E2E2E2E2E2E2E2E2E2E2E2E2E2E2E2E2E2E2E2E2E2E2E2E2E2E2E2
310
E2E2E2E2E2E2E2E2E2E2E2E2E2E2E2E2E2E2E2E2E2E2E2E2E2E2E2E2E2E2E2E2E2E2E2E2E2E2F5F5EFF5E2E2E2E2E2E2E2E2E2E2E2E2E2E2E2E2E2E2E2E2E2E2E2E2E2E2E2E2E2E2E2E2E2E2E2E2E2E2E2E2E2E2E2E2E2E2E2E2E2E2E2E2E2E2E2E2E2E2E2E2E2E2E2E2E2E2E2E2E2E2E2E2E2E2E2E2E2E2E2E2E2E2E2E2E2
310
E2E2E2E2E2E2E2E2E2E2E2E2E2E2E2E2E2E2E2E2E2E2E2E2E2E2E2E2E2E2E2E2E2E2E2E2E2E2E2E2E2E2E2E2E2E2E2E2E2E2E2E2E2E2E2E2E2E2E2E2E2E2E2E2E2E2E2E2E2E2E2E2E2E2E2E2E2E2E2E2E2E2E2E2E2E2E2E2E2E2E2F5F5EFF5E2E2F5E2E2E2E2E2E2E2E2E2E2E2E2E2E2E2E2E2E2E2E2E2E2E2E2E2E2E2E2E2
310
E2E2E2E2E2E2E2E2E2E2E2E2E2E2E2E2E2E2E2E2E2E2E2E2E2E2E2E2E2E2E2E2E2E2E2E2E2E2E2E2E2E2E2E2E2E2E2E2E2E2E2E2E2E2E2E2E2E2E2E2E2E2E2E2E2E2E2E2E2E2E2E2E2E2E2E2E2E2E2E2E2E2E2E2E2E2E2E2E2E2E2E2E2E2E2E2E2E2E2E2E2E2E2E2E2E2E2E2E2E2E2E2E2E2E2E2E2E2E2E2E2E2E2E2E2E2E2
310
E2E2E2E2E2E2E2E2E2E2E2E2E2E2F5E2E2F5F5EFF5E2E2F5E2E2E2E2E2E2E2E2E2E2E2E2E2E2E2E2E2E2E2E2E2E2E2E2E2E2E2E2E2E2E2E2E2E2E2E2E2E2E2E2E2E2E2E2E2E2E2E2E2E2E2E2E2E2E2E2E2E2E2E2E2E2E2E2E2E2E2E2E2E2E2E2E2E2E2E2E2E2E2E2E2E2E2E2E2E2E2E2E2E2E2E2E2E2E2E2E2E2E2E2E2E2E2
310
E2E2E2E2E2E2E2E2E2E2E2E2E2E2E2E2E2E2E2E2E2E2E2E2E2E2E2E2E2E2E2E2E2E2E2E2E2E2E2E2E2E2E2E2E2E2E2E2E2E2E2E2E2E2E2E2E2E2E2E2E2E2E2E2E2E2E2F5E2E2F5F5EFF5E2E2F5E2E2E2E2E2E2E2E2E2E2E2E2E2E2E2E2E2E2E2E2E2E2E2E2E2E2E2E2E2E2E2E2E2E2E2E2E2E2E2E2E2E2E2E2E2E2E2E2E2E2
310
E2E2E2E2E2E2E2E2E2E2E2E2E2E2E2E2E2E2E2E2E2E2E2E2E2E2E2E2E2E2E2E2E2E2E2E2E2E2E2E2E2E2E2E2E2E2E2E2E2E2E2E2E2E2E2E2E2E2E2E2E2E2E2E2E2E2E2E2E2E2E2E2E2E2E2E2E2E2E2E2E2E2E2E2E2E2E2E2E2E2E2E2E2E2E2E2E2E2E2E2E2E2E2E2E2E2E2E2E2E2E2E2E2E2E2E2E2E2E2E2F5E2E2F5F5EFF5
310
E2E2F5E2E2E2E2E2E2E2E2E2E2E2E2E2E2E2E2E2E2E2E2E2E2E2E2E2E2E2E2E2E2E2E2E2E2E2E2E2E2E2E2E2E2E2E2E2E2E2E2E2E2E2E2E2E2E2E2E2E2E2E2E2E2E2E2E2E2E2E2E2E2E2E2E2E2E2E2E2E2E2E2E2E2E2E2E2E2E2E2E2E2E2E2E2E2E2E2E2E2E2E2E2E2E2E2E2E2E2E2E2E2E2E2E2E2E2E2E2E2E2E2E2E2E2E2
310
E2E2E2E2E2E2E2E2E2E2E2E2E2E2E2E2E2E2E2E2E2E2E2E2E2E2E2E2E2E2E2E2E2E2E2E2E2E2E2E2E2E2E2E2E2E2F5E2E2F5F5EFF5E2E2F5E2E2E2E2E2E2E2E2E2E2E2E2E2E2E2E2E2E2E2E2E2E2E2E2E2E2E2E2E2E2E2E2E2E2E2E2E2E2E2E2E2E2E2E2E2E2E2E2E2E2E2E2E2E2E2E2E2E2E2E2E2E2E2E2E2E2E2E2E2E2E2
310
E2E2E2E2E2E2E2E2E2E2E2E2E2E2E2E2E2E2E2E2E2E2E2E2E2E2E2E2E2E2E2E2E2E2E2E2E2E2E2E2E2E2E2E2E2E2E2E2E2E2E2E2E2E2E2E2E2E2E2E2E2E2E2E2E2E2E2E2E2E2E2E2E2E2E2E2E2E2E2E2E2E2E2E2E2E2E2E2E2E2E2E2E2E2E2E2E2E2E2F5E2E2F5F5EFF5E2E2F5E2E2E2E2E2E2E2E2E2E2E2E2E2E2E2E2E2E2
310
E2E2E2E2E2E2E2E2E2E2E2E2E2E2E2E2E2E2E2E2E2E2E2E2E2E2E2E2E2E2E2E2E2E2E2E2E2E2E2E2E2E2E2E2E2E2E2E2E2E2E2E2E2E2E2E2E2E2E2E2E2E2E2E2E2E2E2E2E2E2E2E2E2E2E2E2E2E2E2E2E2E2E2E2E2E2E2E2E2E2E2E2E2E2E2E2E2E2E2E2E2E2E2E2E2E2E2E2E2E2E2E2E2E2E2E2E2E2E2E2E2E2E2E2E2E2E2
310
E2E2E2E2E2E2E2E2E2E2E2E2E2E2E2E2E2E2E2E2E2E2E2E2E2F5E2E2F5F5EFF5E2E2F5E2E2E2E2E2E2E2E2E2E2E2E2E2E2E2E2E2E2E2E2E2E2E2E2E2E2E2E2E2E2E2E2E2E2E2E2E2E2E2E2E2E2E2E2E2E2E2E2E2E2E2E2E2E2E2E2E2E2E2E2E2E2E2E2E2E2E2E2E2E2E2E2E2E2E2E2E2E2E2E2E2E2E2E2E2E2E2E2E2E2E2E2
310
E2E2E2E2E2E2E2E2E2E2E2E2E2E2E2E2E2E2E2E2E2E2E2E2E2E2E2E2E2E2E2E2E2E2E2E2E2E2E2E2E2E2E2E2E2E2E2E2E2E2E2E2E2E2E2E2E2E2E2E2E2E2E2E2E2E2E2E2E2E2E2E2E2E2E2E2E2E2F5E2E2F5F5EFF5E2E2F5E2E2E2E2E2E2E2E2E2E2E2E2E2E2E2E2E2E2E2E2E2E2E2E2E2E2E2E2E2E2E2E2E2E2E2E2E2E2E2
310
E2E2E2E2E2E2E2E2E2E2E2E2E2E2E2E2E2E2E2E2E2E2E2E2E2E2E2E2E2E2E2E2E2E2E2E2E2E2E2E2E2E2E2E2E2E2E2E2E2E2E2E2E2E2E2E2E2E2E2E2E2E2E2E2E2E2E2E2E2E2E2E2E2E2E2E2E2E2E2E2E2E2E2E2E2E2E2E2E2E2E2E2E2E2E2E2E2E2E2E2E2E2E2E2E2E2E2E2E2E2E2E2E2E2E2E2E2E2E2E2E2E2E2E2E2E2E2
310
E2E2E2E2F5E2E2F5F5EFF5E2E2F5E2E2E2E2E2E2E2E2E2E2E2E2E2E2E2E2E2E2E2E2E2E2E2E2E2E2E2E2E2E2E2E2E2E2E2E2E2E2E2E2E2E2E2E2E2E2E2E2E2E2E2E2E2E2E2E2E2E2E2E2E2E2E2E2E2E2E2E2E2E2E2E2E2E2E2E2E2E2E2E2E2E2E2E2E2E2E2E2E2E2E2E2E2E2E2E2E2E2E2E2E2E2E2E2E2E2E2E2E2E2E2E2E2
310
E2E2E2E2E2E2E2E2E2E2E2E2E2E2E2E2E2E2E2E2E2E2E2E2E2E2E2E2E2E2E2E2E2E2E2E2E2E2E2E2E2E2E2E2E2E2E2E2E2E2E2E2E2E2E2E2E2F5E2E2F5F5EFF5E2E2F5E2E2E2E2E2E2E2E2E2E2E2E2E2E2E2E2E2E2E2E2E2E2E2E2E2E2E2E2E2E2E2E2E2E2E2E2E2E2E2E2E2E2E2E2E2E2E2E2E2E2E2E2E2E2E2E2E2E2E2E2
310
E2E2E2E2E2E2E2E2E2E2E2E2E2E2E2E2E2E2E2E2E2E2E2E2E2E2E2E2E2E2E2E2E2E2E2E2E2E2E2E2E2E2E2E2E2E2E2E2E2E2E2E2E2E2E2E2E2E2E2E2E2E2E2E2E2E2E2E2E2E2E2E2E2E2E2E2E2E2E2E2E2E2E2E2E2E2E2E2E2E2E2E2E2E2E2E2E2E2E2E2E2E2E2E2E2E2E2E2E2E2F5E2E2F5F5EFF5E2E2F5E2E2E2E2E2E2E2
310
E2E2E2E2E2E2E2E2E2E2E2E2E2E2E2E2E2E2E2E2E2E2E2E2E2E2E2E2E2E2E2E2E2E2E2E2E2E2E2E2E2E2E2E2E2E2E2E2E2E2E2E2E2E2E2E2E2E2E2E2E2E2E2E2E2E2E2E2E2E2E2E2E2E2E2E2E2E2E2E2E2E2E2E2E2E2E2E2E2E2E2E2E2E2E2E2E2E2E2E2E2E2E2E2E2E2E2E2E2E2E2E2E2E2E2E2E2E2E2E2E2E2E2E2E2E2E2
310
E2E2E2E2E2E2E2E2E2E2E2E2E2E2E2E2E2E2E2E2E2E2E2E2E2E2E2E2E2E2E2E2E2E2E2E2F5E2E2F5F5EFF5E2E2F5E2E2E2E2E2E2E2E2E2E2E2E2E2E2E2E2E2E2E2E2E2E2E2E2E2E2E2E2E2E2E2E2E2E2E2E2E2E2E2E2E2E2E2E2E2E2E2E2E2E2E2E2E2E2E2E2E2E2E2E2E2E2E2E2E2E2E2E2E2E2E2E2E2E2E2E2E2E2E2E2E2
310
E2E2E2E2E2E2E2E2E2E2E2E2E2E2E2E2E2E2E2E2E2E2E2E2E2E2E2E2E2E2E2E2E2E2E2E2E2E2E2E2E2E2E2E2E2E2E2E2E2E2E2E2E2E2E2E2E2E2E2E2E2E2E2E2E2E2E2E2E2E2E2E2E2E2E2E2E2E2E2E2E2E2E2E2E2E2E2E2E2F5E2E2F5F5EFF5E2E2F5E2E2E2E2E2E2E2E2E2E2E2E2E2E2E2E2E2E2E2E2E2E2E2E2E2E2E2E2
310
E2E2E2E2E2E2E2E2E2E2E2E2E2E2E2E2E2E2E2E2E2E2E2E2E2E2E2E2E2E2E2E2E2E2E2E2E2E2E2E2E2E2E2E2E2E2E2E2E2E2E2E2E2E2E2E2E2E2E2E2E2E2E2E2E2E2E2E2E2E2E2E2E2E2E2E2E2E2E2E2E2E2E2E2E2E2E2E2E2E2E2E2E2E2E2E2E2E2E2E2E2E2E2E2E2E2E2E2E2E2E2E2E2E2E2E2E2E2E2E2E2E2E2E2E2E2E2
310
E2E2E2E2E2E2E2E2E2E2E2E2E2E2E2F5E2E2F5F5EFF5E2E2F5E2E2E2E2E2E2E2E2E2E2E2E2E2E2E2E2E2E2E2E2E2E2E2E2E2E2E2E2E2E2E2E2E2E2E2E2E2E2E2E2E2E2E2E2E2E2E2E2E2E2E2E2E2E2E2E2E2E2E2E2E2E2E2E2E2E2E2E2E2E2E2E2E2E2E2E2E2E2E2E2E2E2E2E2E2E2E2E2E2E2E2E2E2E2E2E2E2E2E2E2E2E2
310
E2E2E2E2E2E2E2E2E2E2E2E2E2E2E2E2E2E2E2E2E2E2E2E2E2E2E2E2E2E2E2E2E2E2E2E2E2E2E2E2E2E2E2E2E2E2E2E2E2E2E2E2E2E2E2E2E2E2E2E2E2E2E2E2E2E2E2E2F5E2E2F5F5EFF5E2E2F5E2E2E2E2E2E2E2E2E2E2E2E2E2E2E2E2E2E2E2E2E2E2E2E2E2E2E2E2E2E2E2E2E2E2E2E2E2E2E2E2E2E2E2E2E2E2E2E2E2
310
E2E2E2E2E2E2E2E2E2E2E2E2E2E2E2E2E2E2E2E2E2E2E2E2E2E2E2E2E2E2E2E2E2E2E2E2E2E2E2E2E2E2E2E2E2E2E2E2E2E2E2E2E2E2E2E2E2E2E2E2E2E2E2E2E2E2E2E2E2E2E2E2E2E2E2E2E2E2E2E2E2E2E2E2E2E2E2E2E2E2E2E2E2E2E2E2E2E2E2E2E2E2E2E2E2E2E2E2E2E2E2E2E2E2E2E2E2E2E2E2E2F5E2E2F5F5EF
310
F5E2E2E2E2E2E2E2E2E2E2E2E2E2E2E2E2E2E2E2E2E2E2E2E2E2E2E2E2E2E2E2E2E2E2E2E2E2E2E2E2E2E2E2E2E2E2E2E2E2E2E2E2E2E2E2E2E2E2E2E2E2E2E2E2E2E2E2E2E2E2E2E2E2E2E2E2E2E2E2E2E2E2E2E2E2E2E2E2E2E2E2E2E2E2E2E2E2E2E2E2E2E2E2E2E2E2E2E2E2E2E2E2E2E2E2E2E2E2E2E2E2E2E2E2E2E2
310
E2E2E2E2E2E2E2E2E2E2E2E2E2E2E2E2E2E2E2E2E2E2E2E2E2E2E2E2E2E2E2E2E2E2E2E2E2E2E2E2E2E2E2E2E2E2E2E2E2E2F5F5EFF5E2E2E2E2E2E2E2E2E2E2E2E2E2E2E2E2E2E2E2E2E2E2E2E2E2E2E2E2E2E2E2E2E2E2E2E2E2E2E2E2E2E2E2E2E2E2E2E2E2E2E2E2E2E2E2E2E2E2E2E2E2E2E2E2E2E2E2E2E2E2E2E2E2
310
E2E2E2E2E2E2E2E2E2E2E2E2E2E2E2E2E2E2E2E2E2E2E2E2E2E2E2E2E2E2E2E2E2E2E2E2E2E2E2E2E2E2E2E2E2E2E2E2E2E2E2E2E2E2E2E2E2E2E2E2E2E2E2E2E2E2E2E2E2E2E2E2E2E2E2E2E2E2E2E2E2E2E2E2E2E2E2E2E2E2E2E2E2E2E2E2E2E2E2E2E2E2E2F5F5EFF5E2E2E2E2E2E2E2E2E2E2E2E2E2E2E2E2E2E2E2E2
310
E2E2E2E2E2E2E2E2E2E2E2E2E2E2E2E2E2E2E2E2E2E2E2E2E2E2E2E2E2E2E2E2E2E2E2E2E2E2E2E2E2E2E2E2E2E2E2E2E2E2E2E2E2E2E2E2E2E2E2E2E2E2E2E2E2E2E2E2E2E2E2E2E2E2E2E2E2E2E2E2E2E2E2E2E2E2E2E2E2E2E2E2E2E2E2E2E2E2E2E2E2E2E2E2E2E2E2E2E2E2E2E2E2E2E2E2E2E2E2E2E2E2E2E2E2E2E2
310
E2E2E2E2E2E2E2E2E2E2E2E2E2E2E2E2E2E2E2E2E2E2E2E2E2E2E2E2E2F5F5EFF5E2E2E2E2E2E2E2E2E2E2E2E2E2E2E2E2E2E2E2E2E2E2E2E2E2E2E2E2E2E2E2E2E2E2E2E2E2E2E2E2E2E2E2E2E2E2E2E2E2E2E2E2E2E2E2E2E2E2E2E2E2E2E2E2E2E2E2E2E2E2E2E2E2E2E2E2E2E2E2E2E2E2E2E2E2E2E2E2E2E2E2E2E2E2
310
E2E2E2E2E2E2E2E2E2E2E2E2E2E2E2E2E2E2E2E2E2E2E2E2E2E2E2E2E2E2E2E2E2E2E2E2E2E2E2E2E2E2E2E2E2E2E2E2E2E2E2E2E2E2E2E2E2E2E2E2E2E2E2E2E2E2E2E2E2E2E2E2E2E2E2E2E2E2E2E2E2E2F5F5EFF5E2E2E2E2E2E2E2E2E2E2E2E2E2E2E2E2E2E2E2E2E2E2E2E2E2E2E2E2E2E2E2E2E2E2E2E2E2E2E2E2E2
310
E2E2E2E2E2E2E2E2E2E2E2E2E2E2E2E2E2E2E2E2E2E2E2E2E2E2E2E2E2E2E2E2E2E2E2E2E2E2E2E2E2E2E2E2E2E2E2E2E2E2E2E2E2E2E2E2E2E2E2E2E2E2E2E2E2E2E2E2E2E2E2E2E2E2E2E2E2E2E2E2E2E2E2E2E2E2E2E2E2E2E2E2E2E2E2E2E2E2E2E2E2E2E2E2E2E2E2E2E2E2E2E2E2E2E2E2E2E2E2E2E2E2E2E2E2E2E2
310
E2E2E2E2E2E2E2E2F5F5EFF5E2E2F5F5F5F5F5F5F5F5F5F5F5F5F5F5F5F5F5F5F5F5F5F5F5F5F5F5F5F5F5F5F5F5F5F5F5F5F5F5F5F5F5F5F5F5F5F5F5F5F5F5F5F5F5F5F5F5F5F5F5F5F5F5F5F5F5F5F5F5F5F5F5F5F5F5F5F5F5F5F5F5F5F5F5F5F5F5F5F5F5F5F5F5F5F5F5F5F5F5F5F5F5F5F5F5F5F5F5F5F5F5F5F5F5
310
F5F5F5F5F5F5F5F5F5F5F5F5F5F5F5F5F5F5F5F5F5F5F5F5F5F5F5F5F5F5F5F5F5F5F5F5F5F5F5F5F5F5F5F5F5F5F5F5F5F5F5F5F5F5F5F5F5F5E2E2E2F5F5EFF5E2E2E2E2E2E2E2E2E2E2E2E2E2E2E2E2E2E2E2E2E2E2E2E2E2E2E2E2E2E2E2E2E2E2E2E2E2E2E2E2E2E2E2E2E2E2E2E2E2E2E2E2E2E2E2E2E2E2E2E2E2E2
310
E2E2E2E2E2E2E2E2E2E2E2E2E2E2E2E2E2E2E2E2E2E2E2E2E2E2E2E2E2E2E2E2E2E2E2E2E2E2E2E2E2E2E2E2E2E2E2E2E2E2E2E2E2E2E2E2E2E2E2E2E2E2E2E2E2E2E2E2E2E2E2E2E2E2E2E2E2E2E2E2E2E2E2E2E2E2E2E2E2E2E2E2E2E2E2E2E2E2E2E2E2E2E2E2E2E2E2E2E2E2E2E2E2E2F5F5EFF5E2E2E2E2E2E2E2E2E2
310
E2E2E2E2E2E2E2E2E2E2E2E2E2E2E2E2E2E2E2E2E2E2E2E2E2E2E2E2E2E2E2E2E2E2E2E2E2E2E2E2E2E2E2E2E2E2E2E2E2E2E2E2E2E2E2E2E2E2E2E2E2E2E2E2E2E2E2E2E2E2E2E2E2E2E2E2E2E2E2E2E2E2E2E2E2E2E2E2E2E2E2E2E2E2E2E2E2E2E2E2E2E2E2E2E2E2E2E2E2E2E2E2E2E2E2E2E2E2E2E2E2E2E2E2E2E2E2
310
E2E2E2E2E2E2E2E2E2E2E2E2E2E2E2E2E2E2E2E2E2E2E2E2E2E2E2E2E2E2E2E2E2E2E2E2E2E2E2E2F5F5EFF5E2E2E2E2E2E2E2E2E2E2E2E2E2E2E2E2E2E2E2E2E2E2E2E2E2E2E2E2E2E2E2E2E2E2E2E2E2E2E2E2E2E2E2E2E2E2E2E2E2E2E2E2E2E2E2E2E2E2E2E2E2E2E2E2E2E2E2E2E2E2E2E2E2E2E2E2E2E2E2E2E2E2E2
310
E2E2E2E2E2E2E2E2E2E2E2E2E2E2E2E2E2E2E2E2E2E2E2E2E2E2E2E2E2E2E2E2E2E2E2E2E2E2E2E2E2E2E2E2E2E2E2E2E2E2E2E2E2E2E2E2E2E2E2E2E2E2E2E2E2E2E2E2E2E2E2E2E2E2E2E2E2E2E2E2E2E2E2E2E2E2E2E2E2E2E2E2E2F5F5EFF5E2E2F5E2E2E2E2E2E2E2E2E2E2E2E2E2E2E2E2E2E2E2E2E2E2E2E2E2E2E2
310
E2E2E2E2E2E2E2E2E2E2E2E2E2E2E2E2E2E2E2E2E2E2E2E2E2E2E2E2E2E2E2E2E2E2E2E2E2E2E2E2E2E2E2E2E2E2E2E2E2E2E2E2E2E2E2E2E2E2E2E2E2E2E2E2E2E2E2E2E2E2E2E2E2E2E2E2E2E2E2E2E2E2E2E2E2E2E2E2E2E2E2E2E2E2E2E2E2E2E2E2E2E2E2E2E2E2E2E2E2E2E2E2E2E2E2E2E2E2E2E2E2E2E2E2E2E2E2
310
E2E2E2E2E2E2E2E2E2E2E2E2E2E2E2E2F5E2E2F5F5EFF5E2E2F5E2E2E2E2E2E2E2E2E2E2E2E2E2E2E2E2E2E2E2E2E2E2E2E2E2E2E2E2E2E2E2E2E2E2E2E2E2E2E2E2E2E2E2E2E2E2E2E2E2E2E2E2E2E2E2E2E2E2E2E2E2E2E2E2E2E2E2E2E2E2E2E2E2E2E2E2E2E2E2E2E2E2E2E2E2E2E2E2E2E2E2E2E2E2E2E2E2E2E2E2E2
310
E2E2E2E2E2E2E2E2E2E2E2E2E2E2E2E2E2E2E2E2E2E2E2E2E2E2E2E2E2E2E2E2E2E2E2E2E2E2E2E2E2E2E2E2E2E2E2E2E2E2E2E2E2E2E2E2E2E2E2E2E2E2E2E2E2E2E2E2E2F5E2E2F5F5EFF5E2E2F5E2E2E2E2E2E2E2E2E2E2E2E2E2E2E2E2E2E2E2E2E2E2E2E2E2E2E2E2E2E2E2E2E2E2E2E2E2E2E2E2E2E2E2E2E2E2E2E2
310
E2E2E2E2E2E2E2E2E2E2E2E2E2E2E2E2E2E2E2E2E2E2E2E2E2E2E2E2E2E2E2E2E2E2E2E2E2E2E2E2E2E2E2E2E2E2E2E2E2E2E2E2E2E2E2E2E2E2E2E2E2E2E2E2E2E2E2E2E2E2E2E2E2E2E2E2E2E2E2E2E2E2E2E2E2E2E2E2E2E2E2E2E2E2E2E2E2E2E2E2E2E2E2E2E2E2E2E2E2E2E2E2E2E2E2E2E2E2E2E2E2E2F5E2E2F5F5
310
EFF5E2E2F5E2E2E2E2E2E2E2E2E2E2E2E2E2E2E2E2E2E2E2E2E2E2E2E2E2E2E2E2E2E2E2E2E2E2E2E2E2E2E2E2E2E2E2E2E2E2E2E2E2E2E2E2E2E2E2E2E2E2E2E2E2E2E2E2E2E2E2E2E2E2E2E2E2E2E2E2E2E2E2E2E2E2E2E2E2E2E2E2E2E2E2E2E2E2E2E2E2E2E2E2E2E2E2E2E2E2E2E2E2E2E2E2E2E2E2E2E2E2E2E2E2E2
310
E2E2E2E2E2E2E2E2E2E2E2E2E2E2E2E2E2E2E2E2E2E2E2E2E2E2E2E2E2E2E2E2E2E2E2E2E2E2E2E2E2E2E2E2E2E2E2E2F5E2E2F5F5EFF5E2E2F5E2E2E2E2E2E2E2E2E2E2E2E2E2E2E2E2E2E2E2E2E2E2E2E2E2E2E2E2E2E2E2E2E2E2E2E2E2E2E2E2E2E2E2E2E2E2E2E2E2E2E2E2E2E2E2E2E2E2E2E2E2E2E2E2E2E2E2E2E2
310
E2E2E2E2E2E2E2E2E2E2E2E2E2E2E2E2E2E2E2E2E2E2E2E2E2E2E2E2E2E2E2E2E2E2E2E2E2E2E2E2E2E2E2E2E2E2E2E2E2E2E2E2E2E2E2E2E2E2E2E2E2E2E2E2E2E2E2E2E2E2E2E2E2E2E2E2E2E2E2E2E2E2E2E2E2E2E2E2E2E2E2E2E2E2E2E2E2E2E2E2E2F5E2E2F5F5EFF5E2E2F5E2E2E2E2E2E2E2E2E2E2E2E2E2E2E2E2
310
E2E2E2E2E2E2E2E2E2E2E2E2E2E2E2E2E2E2E2E2E2E2E2E2E2E2E2E2E2E2E2E2E2E2E2E2E2E2E2E2E2E2E2E2E2E2E2E2E2E2E2E2E2E2E2E2E2E2E2E2E2E2E2E2E2E2E2E2E2E2E2E2E2E2E2E2E2E2E2E2E2E2E2E2E2E2E2E2E2E2E2E2E2E2E2E2E2E2E2E2E2E2E2E2E2E2E2E2E2E2E2E2E2E2E2E2E2E2E2E2E2E2E2E2E2E2E2
310
E2E2E2E2E2E2E2E2E2E2E2E2E2E2E2E2E2E2E2E2E2E2E2E2E2E2E2F5E2E2F5F5EFF5E2E2F5E2E2E2E2E2E2E2E2E2E2E2E2E2E2E2E2E2E2E2E2E2E2E2E2E2E2E2E2E2E2E2E2E2E2E2E2E2E2E2E2E2E2E2E2E2E2E2E2E2E2E2E2E2E2E2E2E2E2E2E2E2E2E2E2E2E2E2E2E2E2E2E2E2E2E2E2E2E2E2E2E2E2E2E2E2E2E2E2E2E2
310
E2E2E2E2E2E2E2E2E2E2E2E2E2E2E2E2E2E2E2E2E2E2E2E2E2E2E2E2E2E2E2E2E2E2E2E2E2E2E2E2E2E2E2E2E2E2E2E2E2E2E2E2E2E2E2E2E2E2E2E2E2E2E2E2E2E2E2E2E2E2E2E2E2E2E2E2E2E2E2E2F5E2E2F5F5EFF5E2E2F5E2E2E2E2E2E2E2E2E2E2E2E2E2E2E2E2E2E2E2E2E2E2E2E2E2E2E2E2E2E2E2E2E2E2E2E2E2
310
E2E2E2E2E2E2E2E2E2E2E2E2E2E2E2E2E2E2E2E2E2E2E2E2E2E2E2E2E2E2E2E2E2E2E2E2E2E2E2E2E2E2E2E2E2E2E2E2E2E2E2E2E2E2E2E2E2E2E2E2E2E2E2E2E2E2E2E2E2E2E2E2E2E2E2E2E2E2E2E2E2E2E2E2E2E2E2E2E2E2E2E2E2E2E2E2E2E2E2E2E2E2E2E2E2E2E2E2E2E2E2E2E2E2E2E2E2E2E2E2E2E2E2E2E2E2E2
310
E2E2E2E2E2E2F5E2E2F5F5EFF5E2E2F5E2E2E2E2E2E2E2E2E2E2E2E2E2E2E2E2E2E2E2E2E2E2E2E2E2E2E2E2E2E2E2E2E2E2E2E2E2E2E2E2E2E2E2E2E2E2E2E2E2E2E2E2E2E2E2E2E2E2E2E2E2E2E2E2E2E2E2E2E2E2E2E2E2E2E2E2E2E2E2E2E2E2E2E2E2E2E2E2E2E2E2E2E2E2E2E2E2E2E2E2E2E2E2E2E2E2E2E2E2E2E2
310
E2E2E2E2E2E2E2E2E2E2E2E2E2E2E2E2E2E2E2E2E2E2E2E2E2E2E2E2E2E2E2E2E2E2E2E2E2E2E2E2E2E2E2E2E2E2E2E2E2E2E2E2E2E2E2E2E2E2E2F5E2E2F5F5EFF5E2E2F5E2E2E2E2E2E2E2E2E2E2E2E2E2E2E2E2E2E2E2E2E2E2E2E2E2E2E2E2E2E2E2E2E2E2E2E2E2E2E2E2E2E2E2E2E2E2E2E2E2E2E2E2E2E2E2E2E2E2
310
E2E2E2E2E2E2E2E2E2E2E2E2E2E2E2E2E2E2E2E2E2E2E2E2E2E2E2E2E2E2E2E2E2E2E2E2E2E2E2E2E2E2E2E2E2E2E2E2E2E2E2E2E2E2E2E2E2E2E2E2E2E2E2E2E2E2E2E2E2E2E2E2E2E2E2E2E2E2E2E2E2E2E2E2E2E2E2E2E2E2E2E2E2E2E2E2E2E2E2E2E2E2E2E2E2E2E2E2E2E2E2E2F5E2E2F5F5EFF5E2E2F5E2E2E2E2E2
310
E2E2E2E2E2E2E2E2E2E2E2E2E2E2E2E2E2E2E2E2E2E2E2E2E2E2E2E2E2E2E2E2E2E2E2E2E2E2E2E2E2E2E2E2E2E2E2E2E2E2E2E2E2E2E2E2E2E2E2E2E2E2E2E2E2E2E2E2E2E2E2E2E2E2E2E2E2E2E2E2E2E2E2E2E2E2E2E2E2E2E2E2E2E2E2E2E2E2E2E2E2E2E2E2E2E2E2E2E2E2E2E2E2E2E2E2E2E2E2E2E2E2E2E2E2E2E2
310
E2E2E2E2E2E2E2E2E2E2E2E2E2E2E2E2E2E2E2E2E2E2E2E2E2E2E2E2E2E2E2E2E2E2E2E2E2E2F5E2E2F5F5EFF5E2E2F5E2E2E2E2E2E2E2E2E2E2E2E2E2E2E2E2E2E2E2E2E2E2E2E2E2E2E2E2E2E2E2E2E2E2E2E2E2E2E2E2E2E2E2E2E2E2E2E2E2E2E2E2E2E2E2E2E2E2E2E2E2E2E2E2E2E2E2E2E2E2E2E2E2E2E2E2E2E2E2
310
E2E2E2E2E2E2E2E2E2E2E2E2E2E2E2E2E2E2E2E2E2E2E2E2E2E2E2E2E2E2E2E2E2E2E2E2E2E2E2E2E2E2E2E2E2E2E2E2E2E2E2E2E2E2E2E2E2E2E2E2E2E2E2E2E2E2E2E2E2E2E2E2E2E2E2E2E2E2E2E2E2E2E2E2E2E2E2E2E2E2E2F5E2E2F5F5EFF5E2E2F5E2E2E2E2E2E2E2E2E2E2E2E2E2E2E2E2E2E2E2E2E2E2E2E2E2E2
310
E2E2E2E2E2E2E2E2E2E2E2E2E2E2E2E2E2E2E2E2E2E2E2E2E2E2E2E2E2E2E2E2E2E2E2E2E2E2E2E2E2E2E2E2E2E2E2E2E2E2E2E2E2E2E2E2E2E2E2E2E2E2E2E2E2E2E2E2E2E2E2E2E2E2E2E2E2E2E2E2E2E2E2E2E2E2E2E2E2E2E2E2E2E2E2E2E2E2E2E2E2E2E2E2E2E2E2E2E2E2E2E2E2E2E2E2E2E2E2E2E2E2E2E2E2E2E2
310
E2E2E2E2E2E2E2E2E2E2E2E2E2E2E2E2E2F5E2E2F5F5EFF5E2E2F5E2E2E2E2E2E2E2E2E2E2E2E2E2E2E2E2E2E2E2E2E2E2E2E2E2E2E2E2E2E2E2E2E2E2E2E2E2E2E2E2E2E2E2E2E2E2E2E2E2E2E2E2E2E2E2E2E2E2E2E2E2E2E2E2E2E2E2E2E2E2E2E2E2E2E2E2E2E2E2E2E2E2E2E2E2E2E2E2E2E2E2E2E2E2E2E2E2E2E2E2
310
E2E2E2E2E2E2E2E2E2E2E2E2E2E2E2E2E2E2E2E2E2E2E2E2E2E2E2E2E2E2E2E2E2E2E2E2E2E2E2E2E2E2E2E2E2E2E2E2E2E2E2E2E2E2E2E2E2E2E2E2E2E2E2E2E2E2E2E2E2E2F5E2E2F5F5EFF5E2E2F5E2E2E2E2E2E2E2E2E2E2E2E2E2E2E2E2E2E2E2E2E2E2E2E2E2E2E2E2E2E2E2E2E2E2E2E2E2E2E2E2E2E2E2E2E2E2E2
310
E2E2E2E2E2E2E2E2E2E2E2E2E2E2E2E2E2E2E2E2E2E2E2E2E2E2E2E2E2E2E2E2E2E2E2E2E2E2E2E2E2E2E2E2E2E2E2E2E2E2E2E2E2E2E2E2E2E2E2E2E2E2E2E2E2E2E2E2E2E2E2E2E2E2E2E2E2E2E2E2E2E2E2E2E2E2E2E2E2E2E2E2E2E2E2E2E2E2E2E2E2E2E2E2E2E2E2E2E2E2E2E2E2E2E2E2E2E2E2E2E2E2E2F5E2E2F5
310
F5EFF5E2E2E2E2E2E2E2E2E2E2E2E2E2E2E2E2E2E2E2E2E2E2E2E2E2E2E2E2E2E2E2E2E2E2E2E2E2E2E2E2E2E2E2E2E2E2E2E2E2E2E2E2E2E2E2E2E2E2E2E2E2E2E2E2E2E2E2E2E2E2E2E2E2E2E2E2E2E2E2E2E2E2E2E2E2E2E2E2E2E2E2E2E2E2E2E2E2E2E2E2E2E2E2E2E2E2E2E2E2E2E2E2E2E2E2E2E2E2E2E2E2E2E2E2
310
E2E2E2E2E2E2E2E2E2E2E2E2E2E2E2E2E2E2E2E2E2E2E2E2E2E2E2E2E2E2E2E2E2E2E2E2E2E2E2E2E2E2E2E2E2E2E2E2E2E2E2E2F5F5EFF5E2E2E2E2E2E2E2E2E2E2E2E2E2E2E2E2E2E2E2E2E2E2E2E2E2E2E2E2E2E2E2E2E2E2E2E2E2E2E2E2E2E2E2E2E2E2E2E2E2E2E2E2E2E2E2E2E2E2E2E2E2E2E2E2E2E2E2E2E2E2E2
310
E2E2E2E2E2E2E2E2E2E2E2E2E2E2E2E2E2E2E2E2E2E2E2E2E2E2E2E2E2E2E2E2E2E2E2E2E2E2E2E2E2E2E2E2E2E2E2E2E2E2E2E2E2E2E2E2E2E2E2E2E2E2E2E2E2E2E2E2E2E2E2E2E2E2E2E2E2E2E2E2E2E2E2E2E2E2E2E2E2E2E2E2E2E2E2E2E2E2E2E2E2E2E2E2E2F5F5EFF5E2E2E2E2E2E2E2E2E2E2E2E2E2E2E2E2E2E2
310
E2E2E2E2E2E2E2E2E2E2E2E2E2E2E2E2E2E2E2E2E2E2E2E2E2E2E2E2E2E2E2E2E2E2E2E2E2E2E2E2E2E2E2E2E2E2E2E2E2E2E2E2E2E2E2E2E2E2E2E2E2E2E2E2E2E2E2E2E2E2E2E2E2E2E2E2E2E2E2E2E2E2E2E2E2E2E2E2E2E2E2E2E2E2E2E2E2E2E2E2E2E2E2E2E2E2E2E2E2E2E2E2E2E2E2E2E2E2E2E2E2E2E2E2E2E2E2
310
E2E2E2E2E2E2E2E2E2E2E2E2E2E2E2E2E2E2E2E2E2E2E2E2E2E2E2E2E2E2E2F5F5EFF5E2E2E2E2E2E2E2E2E2E2E2E2E2E2E2E2E2E2E2E2E2E2E2E2E2E2E2E2E2E2E2E2E2E2E2E2E2E2E2E2E2E2E2E2E2E2E2E2E2E2E2E2E2E2E2E2E2E2E2E2E2E2E2E2E2E2E2E2E2E2E2E2E2E2E2E2E2E2E2E2E2E2E2E2E2E2E2E2E2E2E2E2
310
E2E2E2E2E2E2E2E2E2E2E2E2E2E2E2E2E2E2E2E2E2E2E2E2E2E2E2E2E2E2E2E2E2E2E2E2E2E2E2E2E2E2E2E2E2E2E2E2E2E2E2E2E2E2E2E2E2E2E2E2E2E2E2E2E2E2E2E2E2E2E2E2E2E2E2E2E2E2E2E2E2E2E2E2F5F5EFF5E2E2E2E2E2E2E2E2E2E2E2E2E2E2E2E2E2E2E2E2E2E2E2E2E2E2E2E2E2E2E2E2E2E2E2E2E2E2E2
310
E2E2E2E2E2E2E2E2E2E2E2E2E2E2E2E2E2E2E2E2E2E2E2E2E2E2E2E2E2E2E2E2E2E2E2E2E2E2E2E2E2E2E2E2E2E2E2E2E2E2E2E2E2E2E2E2E2E2E2E2E2E2E2E2E2E2E2E2E2E2E2E2E2E2E2E2E2E2E2E2E2E2E2E2E2E2E2E2E2E2E2E2E2E2E2E2E2E2E2E2E2E2E2E2E2E2E2E2E2E2E2E2E2E2E2E2E2E2E2E2E2E2E2E2E2E2E2
310
E2E2E2E2E2E2E2E2E2E2F5F5EFF5E2E2E2E2E2E2E2E2E2E2E2E2E2E2E2E2E2E2E2E2E2E2E2E2E2E2E2E2E2E2E2E2E2E2E2E2E2E2E2E2E2E2E2E2E2E2E2E2E2E2E2E2E2E2E2E2E2E2E2E2E2E2E2E2E2E2E2E2E2E2E2E2E2E2E2E2E2E2E2E2E2E2E2E2E2E2E2E2E2E2E2E2E2E2E2E2E2E2E2E2E2E2E2E2E2E2E2E2E2E2E2E2E2
310
E2E2E2E2E2E2E2E2E2E2E2E2E2E2E2E2E2E2E2E2E2E2E2E2E2E2E2E2E2E2E2E2E2E2E2E2E2E2E2E2E2E2E2E2E2E2E2E2E2E2E2E2E2E2E2E2E2E2E2E2E2E2E2F5F5EFF5E2E2E2E2E2E2E2E2E2E2E2E2E2E2E2E2E2E2E2E2E2E2E2E2E2E2E2E2E2E2E2E2E2E2E2E2E2E2E2E2E2E2E2E2E2E2E2E2E2E2E2E2E2E2E2E2E2E2E2E2
310
E2E2E2E2E2E2E2E2E2E2E2E2E2E2E2E2E2E2E2E2E2E2E2E2E2E2E2E2E2E2E2E2E2E2E2E2E2E2E2E2E2E2E2E2E2E2E2E2E2E2E2E2E2E2E2E2E2E2E2E2E2E2E2E2E2E2E2E2E2E2E2E2E2E2E2E2E2E2E2E2E2E2E2E2E2E2E2E2E2E2E2E2E2E2E2E2E2E2E2E2E2E2E2E2E2E2E2E2E2E2E2E2E2E2E2E2F5F5EFF5E2E2E2E2E2E2E2
310
E2E2E2E2E2E2E2E2E2E2E2E2E2E2E2E2E2E2E2E2E2E2E2E2E2E2E2E2E2E2E2E2E2E2E2E2E2E2E2E2E2E2E2E2E2E2E2E2E2E2E2E2E2E2E2E2E2E2E2E2E2E2E2E2E2E2E2E2E2E2E2E2E2E2E2E2E2E2E2E2E2E2E2E2E2E2E2E2E2E2E2E2E2E2E2E2E2E2E2E2E2E2E2E2E2E2E2E2E2E2E2E2E2E2E2E2E2E2E2E2E2E2E2E2E2E2E2
310
E2E2E2E2E2E2E2E2E2E2E2E2E2E2E2E2E2E2E2E2E2E2E2E2E2E2E2E2E2E2E2E2E2E2E2E2E2E2E2E2E2E2F5F5EFF5E2E2F5E2E2E2E2E2E2E2E2E2E2E2E2E2E2E2E2E2E2E2E2E2E2E2E2E2E2E2E2E2E2E2E2E2E2E2E2E2E2E2E2E2E2E2E2E2E2E2E2E2E2E2E2E2E2E2E2E2E2E2E2E2E2E2E2E2E2E2E2E2E2E2E2E2E2E2E2E2E2
310
E2E2E2E2E2E2E2E2E2E2E2E2E2E2E2E2E2E2E2E2E2E2E2E2E2E2E2E2E2E2E2E2E2E2E2E2E2E2E2E2E2E2E2E2E2E2E2E2E2E2E2E2E2E2E2E2E2E2E2E2E2E2E2E2E2E2E2E2E2E2E2E2E2E2E2E2E2E2E2E2E2E2E2E2E2E2E2E2E2E2E2E2F5E2E2F5F5EFF5E2E2F5E2E2E2E2E2E2E2E2E2E2E2E2E2E2E2E2E2E2E2E2E2E2E2E2E2
310
E2E2E2E2E2E2E2E2E2E2E2E2E2E2E2E2E2E2E2E2E2E2E2E2E2E2E2E2E2E2E2E2E2E2E2E2E2E2E2E2E2E2E2E2E2E2E2E2E2E2E2E2E2E2E2E2E2E2E2E2E2E2E2E2E2E2E2E2E2E2E2E2E2E2E2E2E2E2E2E2E2E2E2E2E2E2E2E2E2E2E2E2E2E2E2E2E2E2E2E2E2E2E2E2E2E2E2E2E2E2E2E2E2E2E2E2E2E2E2E2E2E2E2E2E2E2E2
310
E2E2E2E2E2E2E2E2E2E2E2E2E2E2E2E2E2E2F5E2E2F5F5EFF5E2E2F5E2E2E2E2E2E2E2E2E2E2E2E2E2E2E2E2E2E2E2E2E2E2E2E2E2E2E2E2E2E2E2E2E2E2E2E2E2E2E2E2E2E2E2E2E2E2E2E2E2E2E2E2E2E2E2E2E2E2E2E2E2E2E2E2E2E2E2E2E2E2E2E2E2E2E2E2E2E2E2E2E2E2E2E2E2E2E2E2E2E2E2E2E2E2E2E2E2E2E2
310
E2E2E2E2E2E2E2E2E2E2E2E2E2E2E2E2E2E2E2E2E2E2E2E2E2E2E2E2E2E2E2E2E2E2E2E2E2E2E2E2E2E2E2E2E2E2E2E2E2E2E2E2E2E2E2E2E2E2E2E2E2E2E2E2E2E2E2E2E2E2E2F5E2E2F5F5EFF5E2E2F5E2E2E2E2E2E2E2E2E2E2E2E2E2E2E2E2E2E2E2E2E2E2E2E2E2E2E2E2E2E2E2E2E2E2E2E2E2E2E2E2E2E2E2E2E2E2
310
E2E2E2E2E2E2E2E2E2E2E2E2E2E2E2E2E2E2E2E2E2E2E2E2E2E2E2E2E2E2E2E2E2E2E2E2E2E2E2E2E2E2E2E2E2E2E2E2E2E2E2E2E2E2E2E2E2E2E2E2E2E2E2E2E2E2E2E2E2E2E2E2E2E2E2E2E2E2E2E2E2E2E2E2E2E2E2E2E2E2E2E2E2E2E2E2E2E2E2E2E2E2E2E2E2E2E2E2E2E2E2E2E2E2E2E2E2E2E2E2E2E2E2E2F5E2E2
310
F5F5EFF5E2E2F5E2E2E2E2E2E2E2E2E2E2E2E2E2E2E2E2E2E2E2E2E2E2E2E2E2E2E2E2E2E2E2E2E2E2E2E2E2E2E2E2E2E2E2E2E2E2E2E2E2E2E2E2E2E2E2E2E2E2E2E2E2E2E2E2E2E2E2E2E2E2E2E2E2E2E2E2E2E2E2E2E2E2E2E2E2E2E2E2E2E2E2E2E2E2E2E2E2E2E2E2E2E2E2E2E2E2E2E2E2E2E2E2E2E2E2E2E2E2E2E2
310
E2E2E2E2E2E2E2E2E2E2E2E2E2E2E2E2E2E2E2E2E2E2E2E2E2E2E2E2E2E2E2E2E2E2E2E2E2E2E2E2E2E2E2E2E2E2E2E2E2E2F5E2E2F5F5EFF5E2E2F5E2E2E2E2E2E2E2E2E2E2E2E2E2E2E2E2E2E2E2E2E2E2E2E2E2E2E2E2E2E2E2E2E2E2E2E2E2E2E2E2E2E2E2E2E2E2E2E2E2E2E2E2E2E2E2E2E2E2E2E2E2E2E2E2E2E2E2
310
E2E2E2E2E2E2E2E2E2E2E2E2E2E2E2E2E2E2E2E2E2E2E2E2E2E2E2E2E2E2E2E2E2E2E2E2E2E2E2E2E2E2E2E2E2E2E2E2E2E2E2E2E2E2E2E2E2E2E2E2E2E2E2E2E2E2E2E2E2E2E2E2E2E2E2E2E2E2E2E2E2E2E2E2E2E2E2E2E2E2E2E2E2E2E2E2E2E2E2E2E2E2E2F5E2E2F5F5EFF5E2E2F5E2E2E2E2E2E2E2E2E2E2E2E2E2E2
310
E2E2E2E2E2E2E2E2E2E2E2E2E2E2E2E2E2E2E2E2E2E2E2E2E2E2E2E2E2E2E2E2E2E2E2E2E2E2E2E2E2E2E2E2E2E2E2E2E2E2E2E2E2E2E2E2E2E2E2E2E2E2E2E2E2E2E2E2E2E2E2E2E2E2E2E2E2E2E2E2E2E2E2E2E2E2E2E2E2E2E2E2E2E2E2E2E2E2E2E2E2E2E2E2E2E2E2E2E2E2E2E2E2E2E2E2E2E2E2E2E2E2E2E2E2E2E2
310
E2E2E2E2E2E2E2E2E2E2E2E2E2E2E2E2E2E2E2E2E2E2E2E2E2E2E2E2E2F5E2E2F5F5EFF5E2E2F5E2E2E2E2E2E2E2E2E2E2E2E2E2E2E2E2E2E2E2E2E2E2E2E2E2E2E2E2E2E2E2E2E2E2E2E2E2E2E2E2E2E2E2E2E2E2E2E2E2E2E2E2E2E2E2E2E2E2E2E2E2E2E2E2E2E2E2E2E2E2E2E2E2E2E2E2E2E2E2E2E2E2E2E2E2E2E2E2
310
E2E2E2E2E2E2E2E2E2E2E2E2E2E2E2E2E2E2E2E2E2E2E2E2E2E2E2E2E2E2E2E2E2E2E2E2E2E2E2E2E2E2E2E2E2E2E2E2E2E2E2E2E2E2E2E2E2E2E2E2E2E2E2E2E2E2E2E2E2E2E2E2E2E2E2E2E2E2E2E2E2E2F5E2E2F5F5EFF5E2E2F5E2E2E2E2E2E2E2E2E2E2E2E2E2E2E2E2E2E2E2E2E2E2E2E2E2E2E2E2E2E2E2E2E2E2E2
310
E2E2E2E2E2E2E2E2E2E2E2E2E2E2E2E2E2E2E2E2E2E2E2E2E2E2E2E2E2E2E2E2E2E2E2E2E2E2E2E2E2E2E2E2E2E2E2E2E2E2E2E2E2E2E2E2E2E2E2E2E2E2E2E2E2E2E2E2E2E2E2E2E2E2E2E2E2E2E2E2E2E2E2E2E2E2E2E2E2E2E2E2E2E2E2E2E2E2E2E2E2E2E2E2E2E2E2E2E2E2E2E2E2E2E2E2E2E2E2E2E2E2E2E2E2E2E2
310
E2E2E2E2E2E2E2E2F5E2E2F5F5EFF5E2E2F5E2E2E2E2E2E2E2E2E2E2E2E2E2E2E2E2E2E2E2E2E2E2E2E2E2E2E2E2E2E2E2E2E2E2E2E2E2E2E2E2E2E2E2E2E2E2E2E2E2E2E2E2E2E2E2E2E2E2E2E2E2E2E2E2E2E2E2E2E2E2E2E2E2E2E2E2E2E2E2E2E2E2E2E2E2E2E2E2E2E2E2E2E2E2E2E2E2E2E2E2E2E2E2E2E2E2E2E2E2
310
E2E2E2E2E2E2E2E2E2E2E2E2E2E2E2E2E2E2E2E2E2E2E2E2E2E2E2E2E2E2E2E2E2E2E2E2E2E2E2E2E2E2E2E2E2E2E2E2E2E2E2E2E2E2E2E2E2E2E2E2E2F5E2E2F5F5EFF5E2E2F5E2E2E2E2E2E2E2E2E2E2E2E2E2E2E2E2E2E2E2E2E2E2E2E2E2E2E2E2E2E2E2E2E2E2E2E2E2E2E2E2E2E2E2E2E2E2E2E2E2E2E2E2E2E2E2E2
310
E2E2E2E2E2E2E2E2E2E2E2E2E2E2E2E2E2E2E2E2E2E2E2E2E2E2E2E2E2E2E2E2E2E2E2E2E2E2E2E2E2E2E2E2E2E2E2E2E2E2E2E2E2E2E2E2E2E2E2E2E2E2E2E2E2E2E2E2E2E2E2E2E2E2E2E2E2E2E2E2E2E2E2E2E2E2E2E2E2E2E2E2E2E2E2E2E2E2E2E2E2E2E2E2E2E2E2E2E2E2E2E2E2E2F5E2E2F5F5EFF5E2E2F5E2E2E2
310
E2E2E2E2E2E2E2E2E2E2E2E2E2E2E2E2E2E2E2E2E2E2E2E2E2E2E2E2E2E2E2E2E2E2E2E2E2E2E2E2E2E2E2E2E2E2E2E2E2E2E2E2E2E2E2E2E2E2E2E2E2E2E2E2E2E2E2E2E2E2E2E2E2E2E2E2E2E2E2E2E2E2E2E2E2E2E2E2E2E2E2E2E2E2E2E2E2E2E2E2E2E2E2E2E2E2E2E2E2E2E2E2E2E2E2E2E2E2E2E2E2E2E2E2E2E2E2
310
E2E2E2E2E2E2E2E2E2E2E2E2E2E2E2E2E2E2E2E2E2E2E2E2E2E2E2E2E2E2E2E2E2E2E2E2E2E2E2E2F5E2E2F5F5EFF5E2E2F5E2E2E2E2E2E2E2E2E2E2E2E2E2E2E2E2E2E2E2E2E2E2E2E2E2E2E2E2E2E2E2E2E2E2E2E2E2E2E2E2E2E2E2E2E2E2E2E2E2E2E2E2E2E2E2E2E2E2E2E2E2E2E2E2E2E2E2E2E2E2E2E2E2E2E2E2E2
310
E2E2E2E2E2E2E2E2E2E2E2E2E2E2E2E2E2E2E2E2E2E2E2E2E2E2E2E2E2E2E2E2E2E2E2E2E2E2E2E2E2E2E2E2E2E2E2E2E2E2E2E2E2E2E2E2E2E2E2E2E2E2E2E2E2E2E2E2E2E2E2E2E2E2E2E2E2E2E2E2E2E2E2E2E2E2E2E2E2E2E2E2E2F5E2E2F5F5EFF5E2E2F5E2E2E2E2E2E2E2E2E2E2E2E2E2E2E2E2E2E2E2E2E2E2E2E2
310
E2E2E2E2E2E2E2E2E2E2E2E2E2E2E2E2E2E2E2E2E2E2E2E2E2E2E2E2E2E2E2E2E2E2E2E2E2E2E2E2E2E2E2E2E2E2E2E2E2E2E2E2E2E2E2E2E2E2E2E2E2E2E2E2E2E2E2E2E2E2E2E2E2E2E2E2E2E2E2E2E2E2E2E2E2E2E2E2E2E2E2E2E2E2E2E2E2E2E2E2E2E2E2E2E2E2E2E2E2E2E2E2E2E2E2E2E2E2E2E2E2E2E2E2E2E2E2
310
E2E2E2E2E2E2E2E2E2E2E2E2E2E2E2E2E2E2E2F5E2E2F5F5EFF5E2E2F5E2E2E2E2E2E2E2E2E2E2E2E2E2E2E2E2E2E2E2E2E2E2E2E2E2E2E2E2E2E2E2E2E2E2E2E2E2E2E2E2E2E2E2E2E2E2E2E2E2E2E2E2E2E2E2E2E2E2E2E2E2E2E2E2E2E2E2E2E2E2E2E2E2E2E2E2E2E2E2E2E2E2E2E2E2E2E2E2E2E2E2E2E2E2E2E2E2E2
310
E2E2E2E2E2E2E2E2E2E2E2E2E2E2E2E2E2E2E2E2E2E2E2E2E2E2E2E2E2E2E2E2E2E2E2E2E2E2E2E2E2E2E2E2E2E2E2E2E2E2E2E2E2E2E2E2E2E2E2E2E2E2E2E2E2E2E2E2E2E2E2E2F5E2E2F5F5EFF5E2E2E2E2E2E2E2E2E2E2E2E2E2E2E2E2E2E2E2E2E2E2E2E2E2E2E2E2E2E2E2E2E2E2E2E2E2E2E2E2E2E2E2E2E2E2E2E2
310
E2E2E2E2E2E2E2E2E2E2E2E2E2E2E2E2E2E2E2E2E2E2E2E2E2E2E2E2E2E2E2E2E2E2E2E2E2E2E2E2E2E2E2E2E2E2E2E2E2E2E2E2E2E2E2E2E2E2E2E2E2E2E2E2E2E2E2E2E2E2E2E2E2E2E2E2E2E2E2E2E2E2E2E2E2E2E2E2E2E2E2E2E2E2E2E2E2E2E2E2E2E2E2E2E2E2E2E2E2E2E2E2E2E2E2E2E2E2E2E2E2E2E2E2E2E2E2
310
E2F5F5EFF5E2E2E2E2E2E2E2E2E2E2E2E2E2E2E2E2E2E2E2E2E2E2E2E2E2E2E2E2E2E2E2E2E2E2E2E2E2E2E2E2E2E2E2E2E2E2E2E2E2E2E2E2E2E2E2E2E2E2E2E2E2E2E2E2E2E2E2E2E2E2E2E2E2E2E2E2E2E2E2E2E2E2E2E2E2E2E2E2E2E2E2E2E2E2E2E2E2E2E2E2E2E2E2E2E2E2E2E2E2E2E2E2E2E2E2E2E2E2E2E2E2E2
310
E2E2E2E2E2E2E2E2E2E2E2E2E2E2E2E2E2E2E2E2E2E2E2E2E2E2E2E2E2E2E2E2E2E2E2E2E2E2E2E2E2E2E2E2E2E2E2E2E2E2E2E2E2E2F5F5EFF5E2E2E2E2E2E2E2E2E2E2E2E2E2E2E2E2E2E2E2E2E2E2E2E2E2E2E2E2E2E2E2E2E2E2E2E2E2E2E2E2E2E2E2E2E2E2E2E2E2E2E2E2E2E2E2E2E2E2E2E2E2E2E2E2E2E2E2E2E2
310
E2E2E2E2E2E2E2E2E2E2E2E2E2E2E2E2E2E2E2E2E2E2E2E2E2E2E2E2E2E2E2E2E2E2E2E2E2E2E2E2E2E2E2E2E2E2E2E2E2E2E2E2E2E2E2E2E2E2E2E2E2E2E2E2E2E2E2E2E2E2E2E2E2E2E2E2E2E2E2E2E2E2E2E2E2E2E2E2E2E2E2E2E2E2E2E2E2E2E2E2E2E2E2E2E2E2E2F5F5EFF5E2E2E2E2E2E2E2E2E2E2E2E2E2E2E2E2
310
E2E2E2E2E2E2E2E2E2E2E2E2E2E2E2E2E2E2E2E2E2E2E2E2E2E2E2E2E2E2E2E2E2E2E2E2E2E2E2E2E2E2E2E2E2E2E2E2E2E2E2E2E2E2E2E2E2E2E2E2E2E2E2E2E2E2E2E2E2E2E2E2E2E2E2E2E2E2E2E2E2E2E2E2E2E2E2E2E2E2E2E2E2E2E2E2E2E2E2E2E2E2E2E2E2E2E2E2E2E2E2E2E2E2E2E2E2E2E2E2E2E2E2E2E2E2E2
310
E2E2E2E2E2E2E2E2E2E2E2E2E2E2E2E2E2E2E2E2E2E2E2E2E2E2E2E2E2E2E2E2E2F5F5EFF5E2E2E2E2E2E2E2E2E2E2E2E2E2E2E2E2E2E2E2E2E2E2E2E2E2E2E2E2E2E2E2E2E2E2E2E2E2E2E2E2E2E2E2E2E2E2E2E2E2E2E2E2E2E2E2E2E2E2E2E2E2E2E2E2E2E2E2E2E2E2E2E2E2E2E2E2E2E2E2E2E2E2E2E2E2E2E2E2E2E2
310
E2E2E2E2E2E2E2E2E2E2E2E2E2E2E2E2E2E2E2E2E2E2E2E2E2E2E2E2E2E2E2E2E2E2E2E2E2E2E2E2E2E2E2E2E2E2E2E2E2E2E2E2E2E2E2E2E2E2E2E2E2E2E2E2E2E2E2E2E2E2E2E2E2E2E2E2E2E2E2E2E2E2E2E2E2E2F5F5EFF5E2E2E2E2E2E2E2E2E2E2E2E2E2E2E2E2E2E2E2E2E2E2E2E2E2E2E2E2E2E2E2E2E2E2E2E2E2
310
E2E2E2E2E2E2E2E2E2E2E2E2E2E2E2E2E2E2E2E2E2E2E2E2E2E2E2E2E2E2E2E2E2E2E2E2E2E2E2E2E2E2E2E2E2E2E2E2E2E2E2E2E2E2E2E2E2E2E2E2E2E2E2E2E2E2E2E2E2E2E2E2E2E2E2E2E2E2E2E2E2E2E2E2E2E2E2E2E2E2E2E2E2E2E2E2E2E2E2E2E2E2E2E2E2E2E2E2E2E2E2E2E2E2E2E2E2E2E2E2E2E2E2E2E2E2E2
310
E2E2E2E2E2E2E2E2E2E2E2E2F5F5EFF5E2E2E2E2E2E2E2E2E2E2E2E2E2E2E2E2E2E2E2E2E2E2E2E2E2E2E2E2E2E2E2E2E2E2E2E2E2E2E2E2E2E2E2E2E2E2E2E2E2E2E2E2E2E2E2E2E2E2E2E2E2E2E2E2E2E2E2E2E2E2E2E2E2E2E2E2E2E2E2E2E2E2E2E2E2E2E2E2E2E2E2E2E2E2E2E2E2E2E2E2E2E2E2E2E2E2E2E2E2E2E2
310
E2E2E2E2E2E2E2E2E2E2E2E2E2E2E2E2E2E2E2E2E2E2E2E2E2E2E2E2E2E2E2E2E2E2E2E2E2E2E2E2E2E2E2E2E2E2E2E2E2E2E2E2E2E2E2E2E2E2E2E2E2E2E2E2E2F5F5EFF5E2E2E2E2E2E2E2E2E2E2E2E2E2E2E2E2E2E2E2E2E2E2E2E2E2E2E2E2E2E2E2E2E2E2E2E2E2E2E2E2E2E2E2E2E2E2E2E2E2E2E2E2E2E2E2E2E2E2
310
E2E2E2E2E2E2E2E2E2E2E2E2E2E2E2E2E2E2E2E2E2E2E2E2E2E2E2E2E2E2E2E2E2E2E2E2E2E2E2E2E2E2E2E2E2E2E2E2E2E2E2E2E2E2E2E2E2E2E2E2E2E2E2E2E2E2E2E2E2E2E2E2E2E2E2E2E2E2E2E2E2E2E2E2E2E2E2E2E2E2E2E2E2E2E2E2E2E2E2E2E2E2E2E2E2E2E2E2E2E2E2E2E2E2E2E2E2E2F5F5EFF5E2E2E2E2E2
310
E2E2E2E2E2E2E2E2E2E2E2E2E2E2E2E2E2E2E2E2E2E2E2E2E2E2E2E2E2E2E2E2E2E2E2E2E2E2E2E2E2E2E2E2E2E2E2E2E2E2E2E2E2E2E2E2E2E2E2E2E2E2E2E2E2E2E2E2E2E2E2E2E2E2E2E2E2E2E2E2E2E2E2E2E2E2E2E2E2E2E2E2E2E2E2E2E2E2E2E2E2E2E2E2E2E2E2E2E2E2E2E2E2E2E2E2E2E2E2E2E2E2E2E2E2E2E2
310
E2E2E2E2E2E2E2E2E2E2E2E2E2E2E2E2E2E2E2E2E2E2E2E2E2E2E2E2E2E2E2E2E2E2E2E2E2E2E2E2E2E2E2E2F5F5EFF5E2E2F5E2E2E2E2E2E2E2E2E2E2E2E2E2E2E2E2E2E2E2E2E2E2E2E2E2E2E2E2E2E2E2E2E2E2E2E2E2E2E2E2E2E2E2E2E2E2E2E2E2E2E2E2E2E2E2E2E2E2E2E2E2E2E2E2E2E2E2E2E2E2E2E2E2E2E2E2
310
E2E2E2E2E2E2E2E2E2E2E2E2E2E2E2E2E2E2E2E2E2E2E2E2E2E2E2E2E2E2E2E2E2E2E2E2E2E2E2E2E2E2E2E2E2E2E2E2E2E2E2E2E2E2E2E2E2E2E2E2E2E2E2E2E2E2E2E2E2E2E2E2E2E2E2E2E2E2E2E2E2E2E2E2E2E2E2E2E2E2E2E2E2E2F5E2E2F5F5EFF5E2E2F5E2E2E2E2E2E2E2E2E2E2E2E2E2E2E2E2E2E2E2E2E2E2E2
310
E2E2E2E2E2E2E2E2E2E2E2E2E2E2E2E2E2E2E2E2E2E2E2E2E2E2E2E2E2E2E2E2E2E2E2E2E2E2E2E2E2E2E2E2E2E2E2E2E2E2E2E2E2E2E2E2E2E2E2E2E2E2E2E2E2E2E2E2E2E2E2E2E2E2E2E2E2E2E2E2E2E2E2E2E2E2E2E2E2E2E2E2E2E2E2E2E2E2E2E2E2E2E2E2E2E2E2E2E2E2E2E2E2E2E2E2E2E2E2E2E2E2E2E2E2E2E2
310
E2E2E2E2E2E2E2E2E2E2E2E2E2E2E2E2E2E2E2E2F5E2E2F5F5EFF5E2E2F5E2E2E2E2E2E2E2E2E2E2E2E2E2E2E2E2E2E2E2E2E2E2E2E2E2E2E2E2E2E2E2E2E2E2E2E2E2E2E2E2E2E2E2E2E2E2E2E2E2E2E2E2E2E2E2E2E2E2E2E2E2E2E2E2E2E2E2E2E2E2E2E2E2E2E2E2E2E2E2E2E2E2E2E2E2E2E2E2E2E2E2E2E2E2E2E2E2
310
E2E2E2E2E2E2E2E2E2E2E2E2E2E2E2E2E2E2E2E2E2E2E2E2E2E2E2E2E2E2E2E2E2E2E2E2E2E2E2E2E2E2E2E2E2E2E2E2E2E2E2E2E2E2E2E2E2E2E2E2E2E2E2E2E2E2E2E2E2E2E2E2E2F5E2E2F5F5EFF5E2E2F5E2E2E2E2E2E2E2E2E2E2E2E2E2E2E2E2E2E2E2E2E2E2E2E2E2E2E2E2E2E2E2E2E2E2E2E2E2E2E2E2E2E2E2E2
310
E2E2E2E2E2E2E2E2E2E2E2E2E2E2E2E2E2E2E2E2E2E2E2E2E2E2E2E2E2E2E2E2E2E2E2E2E2E2E2E2E2E2E2E2E2E2E2E2E2E2E2E2E2E2E2E2E2E2E2E2E2E2E2E2E2E2E2E2E2E2E2E2E2E2E2E2E2E2E2E2E2E2E2E2E2E2E2E2E2E2E2E2E2E2E2E2E2E2E2E2E2E2E2E2E2E2E2E2E2E2E2E2E2E2E2E2E2E2E2E2E2E2E2E2E2E2F5
310
E2E2F5F5EFF5E2E2F5E2E2E2E2E2E2E2E2E2E2E2E2E2E2E2E2E2E2E2E2E2E2E2E2E2E2E2E2E2E2E2E2E2E2E2E2E2E2E2E2E2E2E2E2E2E2E2E2E2E2E2E2E2E2E2E2E2E2E2E2E2E2E2E2E2E2E2E2E2E2E2E2E2E2E2E2E2E2E2E2E2E2E2E2E2E2E2E2E2E2E2E2E2E2E2E2E2E2E2E2E2E2E2E2E2E2E2E2E2E2E2E2E2E2E2E2E2E2
310
E2E2E2E2E2E2E2E2E2E2E2E2E2E2E2E2E2E2E2E2E2E2E2E2E2E2E2E2E2E2E2E2E2E2E2E2E2E2E2E2E2E2E2E2E2E2E2E2E2E2E2E2F5E2E2F5F5EFF5E2E2F5E2E2E2E2E2E2E2E2E2E2E2E2E2E2E2E2E2E2E2E2E2E2E2E2E2E2E2E2E2E2E2E2E2E2E2E2E2E2E2E2E2E2E2E2E2E2E2E2E2E2E2E2E2E2E2E2E2E2E2E2E2E2E2E2E2
310
E2E2E2E2E2E2E2E2E2E2E2E2E2E2E2E2E2E2E2E2E2E2E2E2E2E2E2E2E2E2E2E2E2E2E2E2E2E2E2E2E2E2E2E2E2E2E2E2E2E2E2E2E2E2E2E2E2E2E2E2E2E2E2E2E2E2E2E2E2E2E2E2E2E2E2E2E2E2E2E2E2E2E2E2E2E2E2E2E2E2E2E2E2E2E2E2E2E2E2E2E2E2E2E2E2F5E2E2F5F5EFF5E2E2F5E2E2E2E2E2E2E2E2E2E2E2E2
310
E2E2E2E2E2E2E2E2E2E2E2E2E2E2E2E2E2E2E2E2E2E2E2E2E2E2E2E2E2E2E2E2E2E2E2E2E2E2E2E2E2E2E2E2E2E2E2E2E2E2E2E2E2E2E2E2E2E2E2E2E2E2E2E2E2E2E2E2E2E2E2E2E2E2E2E2E2E2E2E2E2E2E2E2E2E2E2E2E2E2E2E2E2E2E2E2E2E2E2E2E2E2E2E2E2E2E2E2E2E2E2E2E2E2E2E2E2E2E2E2E2E2E2E2E2E2E2
310
E2E2E2E2E2E2E2E2E2E2E2E2E2E2E2E2E2E2E2E2E2E2E2E2E2E2E2E2E2E2E2F5E2E2F5F5EFF5E2E2F5F5F5F5F5F5F5F5E2E2E2E2E2E2E2E2E2F5F5F5F5F5F5F5F5F5F5F5F5F5F5F5F5E2E2E2E2E2E2E2E2E2F5F5F5F5F5F5F5F5F5F5F5F5F5F5F5E2E2E2E2E2E2E2E2E2F5F5F5F5F5F5F5F5F5F5F5F5F5F5F5F5E2E2E2E2E2
310
E2E2E2F5F5F5F5F5F5F5F5F5F5F5F5F5F5F5F5E2E2E2E2E2E2E2E2E2F5F5F5F5F5F5F5F5F5F5F5F5F5F5F5E2E2E2E2E2E2E2E2E2F5F5F5F5F5F5F5F5F5F5F5F5F5F5F5F5E2E2E2E2E2E2E2E2E2F5F5F5F5F5F5F5F5E2E2F5F5EFF5E2E2E2E2E2E2E2E2E2E2E2E2E2E2E2E2E2E2E2E2E2E2E2E2E2E2E2E2E2E2E2E2E2E2E2E2
310
E2E2E2E2E2E2E2E2E2E2E2E2E2E2E2E2E2E2E2E2E2E2E2E2E2E2E2E2E2E2E2E2E2E2E2E2E2E2E2E2E2E2E2E2E2E2E2E2E2E2E2E2E2E2E2E2E2E2E2E2E2E2E2E2E2E2E2E2E2E2E2E2E2E2E2E2E2E2E2E2E2E2E2E2E2E2E2E2E2E2E2E2E2E2E2E2E2E2E2E2E2E2E2E2E2E2E2E2E2E2E2E2E2E2E2E2E2E2E2E2E2E2E2E2E2E2E2
310
E2E2E2E2E2E2E2E2E2E2E2E2E2F5F5EFF5E2E2E2E2E2E2E2E2E2E2E2E2E2E2E2E2E2E2E2E2E2E2E2E2E2E2E2E2E2E2E2E2E2E2E2E2E2E2E2E2E2E2E2E2E2E2E2E2E2E2E2E2E2E2E2E2E2E2E2E2E2E2E2E2E2E2E2E2E2E2E2E2E2E2E2E2E2E2E2E2E2E2E2E2E2E2E2E2E2E2E2E2E2E2E2E2E2E2E2E2E2E2E2E2E2E2E2E2E2E2
310
E2E2E2E2E2E2E2E2E2E2E2E2E2E2E2E2E2E2E2E2E2E2E2E2E2E2E2E2E2E2E2E2E2E2E2E2E2E2E2E2E2E2E2E2E2E2E2E2E2E2E2E2E2E2E2E2E2E2E2E2E2E2E2E2E2E2F5F5EFF5E2E2E2E2E2E2E2E2E2E2E2E2E2E2E2E2E2E2E2E2E2E2E2E2E2E2E2E2E2E2E2E2E2E2E2E2E2E2E2E2E2E2E2E2E2E2E2E2E2E2E2E2E2E2E2E2E2
310
E2E2E2E2E2E2E2E2E2E2E2E2E2E2E2E2E2E2E2E2E2E2E2E2E2E2E2E2E2E2E2E2E2E2E2E2E2E2E2E2E2E2E2E2E2E2E2E2E2E2E2E2E2E2E2E2E2E2E2E2E2E2E2E2E2E2E2E2E2E2E2E2E2E2E2E2E2E2E2E2E2E2E2E2E2E2E2E2E2E2E2E2E2E2E2E2E2E2E2E2E2E2E2E2E2E2E2E2E2E2E2E2E2E2E2E2E2E2E2F5EFEFF5F5F5F5F5
310
F5F5F5F5F5F5F5F5F5F5F5F5F5F5F5F5F5F5F5F5F5F5F5F5F5F5F5F5F5F5F5F5F5F5F5F5F5F5F5F5F5F5F5F5F5F5F5F5F5F5F5F5F5F5F5F5F5F5F5F5F5F5F5F5F5F5F5F5F5F5F5F5F5F5F5F5F5F5F5F5F5F5F5F5F5F5F5F5F5F5F5F5F5F5F5F5F5F5F5F5F5F5F5F5F5F5F5F5F5F5F5F5F5F5F5F5F5F5F5F5F5F5F5F5F5F5F5
310
F5F5F5F5F5F5F5F5F5F5F5F5F5F5F5F5F5F5F5F5F5F5F5F5F5F5F5F5F5F5F5F5F5F5F5F5F5F5F5F5F5F5F5F5F5F5EFEF
  0
XRECORD
  5
25A
102
{ACAD_REACTORS
330
42
102
}
330
42
100
AcDbXrecord
280
     1
102
MATERIAL
148
0.0
149
0.0
149
0.0
 93
        0
 94
      127
282
     0
 72
     0
 77
     0
171
     0
175
     0
179
     0
273
     0
  0
XRECORD
  5
43
102
{ACAD_REACTORS
330
42
102
}
330
42
100
AcDbXrecord
280
     1
270
     1
271
     1
  0
XRECORD
  5
44
102
{ACAD_REACTORS
330
42
102
}
330
42
100
AcDbXrecord
280
     1
270
     1
271
     1
  0
XRECORD
  5
45
102
{ACAD_REACTORS
330
42
102
}
330
42
100
AcDbXrecord
280
     1
270
     1
271
     1
  0
XRECORD
  5
46
102
{ACAD_REACTORS
330
42
102
}
330
42
100
AcDbXrecord
280
     1
270
     1
271
     1
  0
XRECORD
  5
47
102
{ACAD_REACTORS
330
42
102
}
330
42
100
AcDbXrecord
280
     1
270
     1
271
     1
  0
XRECORD
  5
48
102
{ACAD_REACTORS
330
42
102
}
330
42
100
AcDbXrecord
280
     1
270
     1
271
     1
  0
XRECORD
  5
259
102
{ACAD_REACTORS
330
3A
102
}
330
3A
100
AcDbXrecord
280
     1
102
MATERIAL
148
0.0
149
0.0
149
0.0
 93
        0
 94
      127
282
     0
 72
     0
 77
     0
171
     0
175
     0
179
     0
273
     0
  0
XRECORD
  5
3B
102
{ACAD_REACTORS
330
3A
102
}
330
3A
100
AcDbXrecord
280
     1
270
     1
271
     1
  0
XRECORD
  5
3C
102
{ACAD_REACTORS
330
3A
102
}
330
3A
100
AcDbXrecord
280
     1
270
     1
271
     1
  0
XRECORD
  5
3D
102
{ACAD_REACTORS
330
3A
102
}
330
3A
100
AcDbXrecord
280
     1
270
     1
271
     1
  0
XRECORD
  5
3E
102
{ACAD_REACTORS
330
3A
102
}
330
3A
100
AcDbXrecord
280
     1
270
     1
271
     1
  0
XRECORD
  5
3F
102
{ACAD_REACTORS
330
3A
102
}
330
3A
100
AcDbXrecord
280
     1
270
     1
271
     1
  0
XRECORD
  5
40
102
{ACAD_REACTORS
330
3A
102
}
330
3A
100
AcDbXrecord
280
     1
270
     1
271
     1
  0
XRECORD
  5
258
102
{ACAD_REACTORS
330
E
102
}
330
E
100
AcDbXrecord
280
     1
102
MATERIAL
148
0.0
149
0.0
149
0.0
 93
        0
 94
      127
282
     0
 72
     0
 77
     0
171
     0
175
     0
179
     0
273
     0
  0
XRECORD
  5
F
102
{ACAD_REACTORS
330
E
102
}
330
E
100
AcDbXrecord
280
     1
270
     1
271
     1
  0
XRECORD
  5
10
102
{ACAD_REACTORS
330
E
102
}
330
E
100
AcDbXrecord
280
     1
270
     1
271
     1
  0
XRECORD
  5
11
102
{ACAD_REACTORS
330
E
102
}
330
E
100
AcDbXrecord
280
     1
270
     1
271
     1
  0
XRECORD
  5
12
102
{ACAD_REACTORS
330
E
102
}
330
E
100
AcDbXrecord
280
     1
270
     1
271
     1
  0
XRECORD
  5
13
102
{ACAD_REACTORS
330
E
102
}
330
E
100
AcDbXrecord
280
     1
270
     1
271
     1
  0
XRECORD
  5
14
102
{ACAD_REACTORS
330
E
102
}
330
E
100
AcDbXrecord
280
     1
270
     1
271
     1
  0
CELLSTYLEMAP
  5
257
102
{ACAD_REACTORS
330
51
102
}
330
51
100
AcDbCellStyleMap
 90
        3
300
CELLSTYLE
  1
TABLEFORMAT_BEGIN
 90
        5
170
     1
 91
        0
 92
    32768
 62
   257
 93
        1
300
CONTENTFORMAT
  1
CONTENTFORMAT_BEGIN
 90
        0
 91
        0
 92
      512
 93
        0
300

 40
0.0
140
1.0
 94
        5
 62
     0
340
26
144
0.25
309
CONTENTFORMAT_END
171
     1
301
MARGIN
  1
CELLMARGIN_BEGIN
 40
0.06
 40
0.06
 40
0.06
 40
0.06
 40
0.18
 40
0.18
309
CELLMARGIN_END
 94
        6
 95
        1
302
GRIDFORMAT
  1
GRIDFORMAT_BEGIN
 90
        0
 91
        1
 62
     0
 92
       -2
340
0
 93
        0
 40
0.045
309
GRIDFORMAT_END
 95
        2
302
GRIDFORMAT
  1
GRIDFORMAT_BEGIN
 90
        0
 91
        1
 62
     0
 92
       -2
340
0
 93
        0
 40
0.045
309
GRIDFORMAT_END
 95
        4
302
GRIDFORMAT
  1
GRIDFORMAT_BEGIN
 90
        0
 91
        1
 62
     0
 92
       -2
340
0
 93
        0
 40
0.045
309
GRIDFORMAT_END
 95
        8
302
GRIDFORMAT
  1
GRIDFORMAT_BEGIN
 90
        0
 91
        1
 62
     0
 92
       -2
340
0
 93
        0
 40
0.045
309
GRIDFORMAT_END
 95
       16
302
GRIDFORMAT
  1
GRIDFORMAT_BEGIN
 90
        0
 91
        1
 62
     0
 92
       -2
340
0
 93
        0
 40
0.045
309
GRIDFORMAT_END
 95
       32
302
GRIDFORMAT
  1
GRIDFORMAT_BEGIN
 90
        0
 91
        1
 62
     0
 92
       -2
340
0
 93
        0
 40
0.045
309
GRIDFORMAT_END
309
TABLEFORMAT_END
  1
CELLSTYLE_BEGIN
 90
        1
 91
        1
300
_TITLE
309
CELLSTYLE_END
300
CELLSTYLE
  1
TABLEFORMAT_BEGIN
 90
        5
170
     1
 91
        0
 92
        0
 62
   257
 93
        1
300
CONTENTFORMAT
  1
CONTENTFORMAT_BEGIN
 90
        0
 91
        0
 92
      512
 93
        0
300

 40
0.0
140
1.0
 94
        5
 62
     0
340
26
144
0.18
309
CONTENTFORMAT_END
171
     1
301
MARGIN
  1
CELLMARGIN_BEGIN
 40
0.06
 40
0.06
 40
0.06
 40
0.06
 40
0.18
 40
0.18
309
CELLMARGIN_END
 94
        6
 95
        1
302
GRIDFORMAT
  1
GRIDFORMAT_BEGIN
 90
        0
 91
        1
 62
     0
 92
       -2
340
0
 93
        0
 40
0.045
309
GRIDFORMAT_END
 95
        2
302
GRIDFORMAT
  1
GRIDFORMAT_BEGIN
 90
        0
 91
        1
 62
     0
 92
       -2
340
0
 93
        0
 40
0.045
309
GRIDFORMAT_END
 95
        4
302
GRIDFORMAT
  1
GRIDFORMAT_BEGIN
 90
        0
 91
        1
 62
     0
 92
       -2
340
0
 93
        0
 40
0.045
309
GRIDFORMAT_END
 95
        8
302
GRIDFORMAT
  1
GRIDFORMAT_BEGIN
 90
        0
 91
        1
 62
     0
 92
       -2
340
0
 93
        0
 40
0.045
309
GRIDFORMAT_END
 95
       16
302
GRIDFORMAT
  1
GRIDFORMAT_BEGIN
 90
        0
 91
        1
 62
     0
 92
       -2
340
0
 93
        0
 40
0.045
309
GRIDFORMAT_END
 95
       32
302
GRIDFORMAT
  1
GRIDFORMAT_BEGIN
 90
        0
 91
        1
 62
     0
 92
       -2
340
0
 93
        0
 40
0.045
309
GRIDFORMAT_END
309
TABLEFORMAT_END
  1
CELLSTYLE_BEGIN
 90
        2
 91
        1
300
_HEADER
309
CELLSTYLE_END
300
CELLSTYLE
  1
TABLEFORMAT_BEGIN
 90
        5
170
     1
 91
        0
 92
        0
 62
   257
 93
        1
300
CONTENTFORMAT
  1
CONTENTFORMAT_BEGIN
 90
        0
 91
        0
 92
      512
 93
        0
300

 40
0.0
140
1.0
 94
        2
 62
     0
340
26
144
0.18
309
CONTENTFORMAT_END
171
     1
301
MARGIN
  1
CELLMARGIN_BEGIN
 40
0.06
 40
0.06
 40
0.06
 40
0.06
 40
0.18
 40
0.18
309
CELLMARGIN_END
 94
        6
 95
        1
302
GRIDFORMAT
  1
GRIDFORMAT_BEGIN
 90
        0
 91
        1
 62
     0
 92
       -2
340
0
 93
        0
 40
0.045
309
GRIDFORMAT_END
 95
        2
302
GRIDFORMAT
  1
GRIDFORMAT_BEGIN
 90
        0
 91
        1
 62
     0
 92
       -2
340
0
 93
        0
 40
0.045
309
GRIDFORMAT_END
 95
        4
302
GRIDFORMAT
  1
GRIDFORMAT_BEGIN
 90
        0
 91
        1
 62
     0
 92
       -2
340
0
 93
        0
 40
0.045
309
GRIDFORMAT_END
 95
        8
302
GRIDFORMAT
  1
GRIDFORMAT_BEGIN
 90
        0
 91
        1
 62
     0
 92
       -2
340
0
 93
        0
 40
0.045
309
GRIDFORMAT_END
 95
       16
302
GRIDFORMAT
  1
GRIDFORMAT_BEGIN
 90
        0
 91
        1
 62
     0
 92
       -2
340
0
 93
        0
 40
0.045
309
GRIDFORMAT_END
 95
       32
302
GRIDFORMAT
  1
GRIDFORMAT_BEGIN
 90
        0
 91
        1
 62
     0
 92
       -2
340
0
 93
        0
 40
0.045
309
GRIDFORMAT_END
309
TABLEFORMAT_END
  1
CELLSTYLE_BEGIN
 90
        3
 91
        2
300
_DATA
309
CELLSTYLE_END
  0
XRECORD
  5
25B
102
{ACAD_REACTORS
330
51
102
}
330
51
100
AcDbXrecord
280
     1
102
ACAD_ROUNDTRIP_PRE2007_TABLESTYLE
 90
      512
 91
        0
  1

 92
      512
 93
        0
  2

 94
      512
 95
        0
  3

  0
ENDSEC
  0
EOF
