  0
SECTION
  2
HEADER
  9
$ACADVER
  1
AC1018
  9
$ACADMAINTVER
 70
   104
  9
$DWGCODEPAGE
  3
ANSI_1252
  9
$LASTSAVEDBY
  1
pevans
  9
$INSBASE
 10
-162.8157996400928
 20
2523.358127293445
 30
0.0
  9
$EXTMIN
 10
-456.7562892501623
 20
2195.425492863595
 30
-0.0000000000000036
  9
$EXTMAX
 10
418.9303077910784
 20
2674.214932297376
 30
0.0000000000000036
  9
$LIMMIN
 10
0.0
 20
0.0
  9
$LIMMAX
 10
420.0
 20
297.0
  9
$ORTHOMODE
 70
     1
  9
$REGENMODE
 70
     1
  9
$FILLMODE
 70
     1
  9
$QTEXTMODE
 70
     0
  9
$MIRRTEXT
 70
     1
  9
$LTSCALE
 40
1.0
  9
$ATTMODE
 70
     1
  9
$TEXTSIZE
 40
2.5
  9
$TRACEWID
 40
10.0
  9
$TEXTSTYLE
  7
ROMANS
  9
$CLAYER
  8
LOCKABLE DOWEL SLEEVE
  9
$CELTYPE
  6
ByLayer
  9
$CECOLOR
 62
   256
  9
$CELTSCALE
 40
1.0
  9
$DISPSILH
 70
     0
  9
$DIMSCALE
 40
0.0
  9
$DIMASZ
 40
3.0
  9
$DIMEXO
 40
4.5
  9
$DIMDLI
 40
10.0
  9
$DIMRND
 40
0.1
  9
$DIMDLE
 40
1.25
  9
$DIMEXE
 40
1.5
  9
$DIMTP
 40
0.0
  9
$DIMTM
 40
0.0
  9
$DIMTXT
 40
2.5
  9
$DIMCEN
 40
0.0
  9
$DIMTSZ
 40
0.0
  9
$DIMTOL
 70
     0
  9
$DIMLIM
 70
     0
  9
$DIMTIH
 70
     0
  9
$DIMTOH
 70
     0
  9
$DIMSE1
 70
     0
  9
$DIMSE2
 70
     0
  9
$DIMTAD
 70
     1
  9
$DIMZIN
 70
    12
  9
$DIMBLK
  1

  9
$DIMASO
 70
     1
  9
$DIMSHO
 70
     0
  9
$DIMPOST
  1

  9
$DIMAPOST
  1

  9
$DIMALT
 70
     0
  9
$DIMALTD
 70
     2
  9
$DIMALTF
 40
0.039
  9
$DIMLFAC
 40
1.0
  9
$DIMTOFL
 70
     0
  9
$DIMTVP
 40
1.8
  9
$DIMTIX
 70
     0
  9
$DIMSOXD
 70
     0
  9
$DIMSAH
 70
     0
  9
$DIMBLK1
  1

  9
$DIMBLK2
  1

  9
$DIMSTYLE
  2
1-1
  9
$DIMCLRD
 70
     0
  9
$DIMCLRE
 70
     0
  9
$DIMCLRT
 70
     0
  9
$DIMTFAC
 40
0.9
  9
$DIMGAP
 40
1.5
  9
$DIMJUST
 70
     0
  9
$DIMSD1
 70
     0
  9
$DIMSD2
 70
     0
  9
$DIMTOLJ
 70
     1
  9
$DIMTZIN
 70
    12
  9
$DIMALTZ
 70
    12
  9
$DIMALTTZ
 70
    12
  9
$DIMUPT
 70
     0
  9
$DIMDEC
 70
     2
  9
$DIMTDEC
 70
     2
  9
$DIMALTU
 70
     2
  9
$DIMALTTD
 70
     2
  9
$DIMTXSTY
  7
STANDARD
  9
$DIMAUNIT
 70
     0
  9
$DIMADEC
 70
     4
  9
$DIMALTRND
 40
0.0
  9
$DIMAZIN
 70
     0
  9
$DIMDSEP
 70
    46
  9
$DIMATFIT
 70
     3
  9
$DIMFRAC
 70
     0
  9
$DIMLDRBLK
  1

  9
$DIMLUNIT
 70
     2
  9
$DIMLWD
 70
    -2
  9
$DIMLWE
 70
    -2
  9
$DIMTMOVE
 70
     2
  9
$LUNITS
 70
     2
  9
$LUPREC
 70
     2
  9
$SKETCHINC
 40
1.0
  9
$FILLETRAD
 40
0.0
  9
$AUNITS
 70
     0
  9
$AUPREC
 70
     4
  9
$MENU
  1
ACAD
  9
$ELEVATION
 40
0.0
  9
$PELEVATION
 40
0.0
  9
$THICKNESS
 40
0.0
  9
$LIMCHECK
 70
     0
  9
$CHAMFERA
 40
0.0
  9
$CHAMFERB
 40
0.0
  9
$CHAMFERC
 40
0.0
  9
$CHAMFERD
 40
0.0
  9
$SKPOLY
 70
     0
  9
$TDCREATE
 40
2449576.350089583
  9
$TDUCREATE
 40
2449576.308422917
  9
$TDUPDATE
 40
2454999.591330347
  9
$TDUUPDATE
 40
2454999.549663681
  9
$TDINDWG
 40
0.4854029514
  9
$TDUSRTIMER
 40
0.4854029514
  9
$USRTIMER
 70
     1
  9
$ANGBASE
 50
0.0
  9
$ANGDIR
 70
     0
  9
$PDMODE
 70
     3
  9
$PDSIZE
 40
0.0
  9
$PLINEWID
 40
0.0
  9
$SPLFRAME
 70
     0
  9
$SPLINETYPE
 70
     6
  9
$SPLINESEGS
 70
     6
  9
$HANDSEED
  5
27E
  9
$SURFTAB1
 70
    12
  9
$SURFTAB2
 70
    12
  9
$SURFTYPE
 70
     6
  9
$SURFU
 70
    12
  9
$SURFV
 70
    12
  9
$UCSBASE
  2

  9
$UCSNAME
  2

  9
$UCSORG
 10
0.0
 20
0.0
 30
0.0
  9
$UCSXDIR
 10
1.0
 20
0.0
 30
0.0
  9
$UCSYDIR
 10
0.0
 20
1.0
 30
0.0
  9
$UCSORTHOREF
  2

  9
$UCSORTHOVIEW
 70
     0
  9
$UCSORGTOP
 10
0.0
 20
0.0
 30
0.0
  9
$UCSORGBOTTOM
 10
0.0
 20
0.0
 30
0.0
  9
$UCSORGLEFT
 10
0.0
 20
0.0
 30
0.0
  9
$UCSORGRIGHT
 10
0.0
 20
0.0
 30
0.0
  9
$UCSORGFRONT
 10
0.0
 20
0.0
 30
0.0
  9
$UCSORGBACK
 10
0.0
 20
0.0
 30
0.0
  9
$PUCSBASE
  2

  9
$PUCSNAME
  2

  9
$PUCSORG
 10
0.0
 20
0.0
 30
0.0
  9
$PUCSXDIR
 10
1.0
 20
0.0
 30
0.0
  9
$PUCSYDIR
 10
0.0
 20
1.0
 30
0.0
  9
$PUCSORTHOREF
  2

  9
$PUCSORTHOVIEW
 70
     0
  9
$PUCSORGTOP
 10
0.0
 20
0.0
 30
0.0
  9
$PUCSORGBOTTOM
 10
0.0
 20
0.0
 30
0.0
  9
$PUCSORGLEFT
 10
0.0
 20
0.0
 30
0.0
  9
$PUCSORGRIGHT
 10
0.0
 20
0.0
 30
0.0
  9
$PUCSORGFRONT
 10
0.0
 20
0.0
 30
0.0
  9
$PUCSORGBACK
 10
0.0
 20
0.0
 30
0.0
  9
$USERI1
 70
     0
  9
$USERI2
 70
     0
  9
$USERI3
 70
     0
  9
$USERI4
 70
     0
  9
$USERI5
 70
     0
  9
$USERR1
 40
0.0
  9
$USERR2
 40
0.0
  9
$USERR3
 40
0.0
  9
$USERR4
 40
0.0
  9
$USERR5
 40
0.0
  9
$WORLDVIEW
 70
     0
  9
$SHADEDGE
 70
     3
  9
$SHADEDIF
 70
    70
  9
$TILEMODE
 70
     1
  9
$MAXACTVP
 70
    16
  9
$PINSBASE
 10
0.0
 20
0.0
 30
0.0
  9
$PLIMCHECK
 70
     0
  9
$PEXTMIN
 10
0.0
 20
-0.2551426056372079
 30
0.0
  9
$PEXTMAX
 10
402.2
 20
276.04
 30
0.0
  9
$PLIMMIN
 10
-7.10953208159549
 20
-9.840350905307564
  9
$PLIMMAX
 10
411.0730395736306
 20
285.880426818014
  9
$UNITMODE
 70
     0
  9
$VISRETAIN
 70
     0
  9
$PLINEGEN
 70
     0
  9
$PSLTSCALE
 70
     0
  9
$TREEDEPTH
 70
  3020
  9
$CMLSTYLE
  2
Standard
  9
$CMLJUST
 70
     0
  9
$CMLSCALE
 40
1.0
  9
$PROXYGRAPHICS
 70
     1
  9
$MEASUREMENT
 70
     0
  9
$CELWEIGHT
370
    -1
  9
$ENDCAPS
280
     0
  9
$JOINSTYLE
280
     0
  9
$LWDISPLAY
290
     0
  9
$INSUNITS
 70
     0
  9
$HYPERLINKBASE
  1

  9
$STYLESHEET
  1

  9
$XEDIT
290
     1
  9
$CEPSNTYPE
380
     0
  9
$PSTYLEMODE
290
     1
  9
$FINGERPRINTGUID
  2
{7CF405EA-6B02-4D20-9FEE-08E4E41953E5}
  9
$VERSIONGUID
  2
{83F5CDF0-0EE0-482E-B8AC-D02C2D91D056}
  9
$EXTNAMES
290
     1
  9
$PSVPSCALE
 40
0.0
  9
$OLESTARTUP
290
     0
  9
$SORTENTS
280
   127
  9
$INDEXCTL
280
     0
  9
$HIDETEXT
280
     1
  9
$XCLIPFRAME
290
     0
  9
$HALOGAP
280
     0
  9
$OBSCOLOR
 70
   257
  9
$OBSLTYPE
280
     0
  9
$INTERSECTIONDISPLAY
280
     0
  9
$INTERSECTIONCOLOR
 70
   257
  9
$DIMASSOC
280
     2
  9
$PROJECTNAME
  1

  0
ENDSEC
  0
SECTION
  2
CLASSES
  0
CLASS
  1
ACDBDICTIONARYWDFLT
  2
AcDbDictionaryWithDefault
  3
ObjectDBX Classes
 90
        0
 91
        1
280
     0
281
     0
  0
CLASS
  1
DIMASSOC
  2
AcDbDimAssoc
  3
"AcDbDimAssoc|Product Desc:     AcDim ARX App For Dimension|Company:          Autodesk, Inc.|WEB Address:      www.autodesk.com"
 90
        0
 91
        0
280
     0
281
     0
  0
CLASS
  1
MATERIAL
  2
AcDbMaterial
  3
ObjectDBX Classes
 90
     1153
 91
        3
280
     0
281
     0
  0
CLASS
  1
VISUALSTYLE
  2
AcDbVisualStyle
  3
ObjectDBX Classes
 90
     4095
 91
       16
280
     0
281
     0
  0
CLASS
  1
TABLESTYLE
  2
AcDbTableStyle
  3
ObjectDBX Classes
 90
     4095
 91
        1
280
     0
281
     0
  0
CLASS
  1
SCALE
  2
AcDbScale
  3
ObjectDBX Classes
 90
     1153
 91
       33
280
     0
281
     0
  0
CLASS
  1
MLEADERSTYLE
  2
AcDbMLeaderStyle
  3
ACDB_MLEADERSTYLE_CLASS
 90
     4095
 91
        1
280
     0
281
     0
  0
CLASS
  1
CELLSTYLEMAP
  2
AcDbCellStyleMap
  3
ObjectDBX Classes
 90
     1152
 91
        2
280
     0
281
     0
  0
CLASS
  1
DICTIONARYVAR
  2
AcDbDictionaryVar
  3
ObjectDBX Classes
 90
        0
 91
        7
280
     0
281
     0
  0
CLASS
  1
SORTENTSTABLE
  2
AcDbSortentsTable
  3
ObjectDBX Classes
 90
        0
 91
        1
280
     0
281
     0
  0
CLASS
  1
MULTILEADER
  2
AcDbMLeader
  3
ACDB_MLEADER_CLASS
 90
     1025
 91
        0
280
     0
281
     1
  0
CLASS
  1
SOLID_BACKGROUND
  2
AcDbSolidBackground
  3
SCENEOE
 90
     4095
 91
        0
280
     0
281
     0
  0
CLASS
  1
NPOCOLLECTION
  2
AcDbImpNonPersistentObjectsCollection
  3
ObjectDBX Classes
 90
     1153
 91
        0
280
     0
281
     0
  0
ENDSEC
  0
SECTION
  2
TABLES
  0
TABLE
  2
VPORT
  5
2D
102
{ACAD_XDICTIONARY
360
31
102
}
330
0
100
AcDbSymbolTable
 70
     1
  0
VPORT
  5
2E
330
2D
100
AcDbSymbolTableRecord
100
AcDbViewportTableRecord
  2
*Active
 70
     0
 10
0.0
 20
0.0
 11
1.0
 21
1.0
 12
-4.613239411736685
 22
2500.542592461356
 13
0.0
 23
0.0
 14
10.0
 24
10.0
 15
0.0
 25
0.0
 16
0.0
 26
0.0
 36
1.0
 17
0.0
 27
0.0
 37
0.0
 40
681.5145747087954
 41
1.545688545688545
 42
50.0
 43
0.0
 44
0.0
 50
0.0
 51
0.0
 71
     0
 72
  2000
 73
     1
 74
     2
 75
     0
 76
     0
 77
     0
 78
     1
281
     0
 65
     1
110
0.0
120
0.0
130
0.0
111
1.0
121
0.0
131
0.0
112
0.0
122
1.0
132
0.0
 79
     0
146
0.0
  0
ENDTAB
  0
TABLE
  2
LTYPE
  5
28
330
0
100
AcDbSymbolTable
 70
     4
  0
LTYPE
  5
29
330
28
100
AcDbSymbolTableRecord
100
AcDbLinetypeTableRecord
  2
ByBlock
 70
     0
  3

 72
    65
 73
     0
 40
0.0
  0
LTYPE
  5
2A
330
28
100
AcDbSymbolTableRecord
100
AcDbLinetypeTableRecord
  2
ByLayer
 70
     0
  3

 72
    65
 73
     0
 40
0.0
  0
LTYPE
  5
15
330
28
100
AcDbSymbolTableRecord
100
AcDbLinetypeTableRecord
  2
CONTINUOUS
 70
     0
  3
Solid line
 72
    65
 73
     0
 40
0.0
  0
LTYPE
  5
95
330
28
100
AcDbSymbolTableRecord
100
AcDbLinetypeTableRecord
  2
CENTER
 70
     0
  3
____ _ ____ _ ____ _ ____ _ ____ _ ____ _ ____ 
 72
    65
 73
     4
 40
50.8
 49
31.75
 74
     0
 49
-6.349999999999999
 74
     0
 49
6.349999999999999
 74
     0
 49
-6.349999999999999
 74
     0
  0
LTYPE
  5
1C2
330
28
100
AcDbSymbolTableRecord
100
AcDbLinetypeTableRecord
  2
HIDDEN
 70
     0
  3
__ __ __ __ __ __ __ __ __ __ __ __ __ __ __ __
 72
    65
 73
     2
 40
9.524999999999998
 49
6.349999999999999
 74
     0
 49
-3.174999999999999
 74
     0
  0
LTYPE
  5
114
330
28
100
AcDbSymbolTableRecord
100
AcDbLinetypeTableRecord
  2
HIDDEN1_01
 70
     0
  3
__ __ __ __ __ __ __ __ __ __ __ __ __ __ __ __
 72
    65
 73
     2
 40
5.0
 49
3.0
 74
     0
 49
-2.0
 74
     0
  0
ENDTAB
  0
TABLE
  2
LAYER
  5
1F
102
{ACAD_XDICTIONARY
360
20
102
}
330
0
100
AcDbSymbolTable
 70
     7
  0
LAYER
  5
6
102
{ACAD_XDICTIONARY
360
7
102
}
330
1F
100
AcDbSymbolTableRecord
100
AcDbLayerTableRecord
  2
0
 70
     0
 62
     7
  6
CONTINUOUS
370
    -3
390
9
  0
LAYER
  5
92
102
{ACAD_XDICTIONARY
360
93
102
}
330
1F
100
AcDbSymbolTableRecord
100
AcDbLayerTableRecord
  2
GRID
 70
     0
 62
     1
  6
CONTINUOUS
370
    -3
390
9
  0
LAYER
  5
1A5
330
1F
100
AcDbSymbolTableRecord
100
AcDbLayerTableRecord
  2
SPECP
 70
     0
 62
     6
  6
CONTINUOUS
370
    -3
390
9
  0
LAYER
  5
170
330
1F
100
AcDbSymbolTableRecord
100
AcDbLayerTableRecord
  2
LOCKABLE DOWEL FORMER
 70
     0
 62
     1
  6
CONTINUOUS
370
    -3
390
9
1001
AcAecLayerStandard
1000

1000

  0
LAYER
  5
4C
330
1F
100
AcDbSymbolTableRecord
100
AcDbLayerTableRecord
  2
LOCKABLE DOWEL SLEEVE
 70
     0
 62
     1
  6
CONTINUOUS
370
    -3
390
9
1001
AcAecLayerStandard
1000

1000

  0
LAYER
  5
173
330
1F
100
AcDbSymbolTableRecord
100
AcDbLayerTableRecord
  2
LOCKABLE DOWEL LOCKING PLATE
 70
     0
 62
     1
  6
CONTINUOUS
370
    -3
390
9
1001
AcAecLayerStandard
1000

1000

  0
LAYER
  5
76
330
1F
100
AcDbSymbolTableRecord
100
AcDbLayerTableRecord
  2
LOCKABLE DOWEL DOWEL COMPONENT
 70
     0
 62
     1
  6
CONTINUOUS
370
    -3
390
9
1001
AcAecLayerStandard
1000

1000

  0
ENDTAB
  0
TABLE
  2
STYLE
  5
25
330
0
100
AcDbSymbolTable
 70
     2
  0
STYLE
  5
26
330
25
100
AcDbSymbolTableRecord
100
AcDbTextStyleTableRecord
  2
STANDARD
 70
     0
 40
0.0
 41
1.0
 50
0.0
 71
     0
 42
5.0
  3
simplex
  4

  0
STYLE
  5
4E
330
25
100
AcDbSymbolTableRecord
100
AcDbTextStyleTableRecord
  2
ROMANS
 70
     0
 40
0.0
 41
1.0
 50
0.0
 71
     0
 42
2.5
  3
romans
  4

  0
ENDTAB
  0
TABLE
  2
VIEW
  5
2B
330
0
100
AcDbSymbolTable
 70
     0
  0
ENDTAB
  0
TABLE
  2
UCS
  5
2C
330
0
100
AcDbSymbolTable
 70
     0
  0
ENDTAB
  0
TABLE
  2
APPID
  5
32
330
0
100
AcDbSymbolTable
 70
     3
  0
APPID
  5
24
330
32
100
AcDbSymbolTableRecord
100
AcDbRegAppTableRecord
  2
ACAD
 70
     0
  0
APPID
  5
4D
330
32
100
AcDbSymbolTableRecord
100
AcDbRegAppTableRecord
  2
AcAecLayerStandard
 70
     0
  0
APPID
  5
274
330
32
100
AcDbSymbolTableRecord
100
AcDbRegAppTableRecord
  2
ACAD_MLEADERVER
 70
     0
  0
ENDTAB
  0
TABLE
  2
DIMSTYLE
  5
33
330
0
100
AcDbSymbolTable
 70
     1
100
AcDbDimStyleTable
 71
     1
340
34
  0
DIMSTYLE
105
34
330
33
100
AcDbSymbolTableRecord
100
AcDbDimStyleTableRecord
  2
1-1
 70
     0
 40
0.0
 41
3.0
 42
4.5
 43
10.0
 44
1.5
 45
0.1
 46
1.25
 73
     0
 74
     0
 77
     1
 78
    12
140
2.5
141
0.0
143
0.039
145
1.8
146
0.9
147
1.5
271
     2
272
     2
279
     2
284
    12
285
    12
286
    12
340
26
  0
ENDTAB
  0
TABLE
  2
BLOCK_RECORD
  5
1
330
0
100
AcDbSymbolTable
 70
     0
  0
BLOCK_RECORD
  5
2
102
{ACAD_XDICTIONARY
360
3
102
}
330
1
100
AcDbSymbolTableRecord
100
AcDbBlockTableRecord
  2
*Model_Space
340
17
  0
BLOCK_RECORD
  5
19
330
1
100
AcDbSymbolTableRecord
100
AcDbBlockTableRecord
  2
*Paper_Space
340
1C
  0
ENDTAB
  0
ENDSEC
  0
SECTION
  2
BLOCKS
  0
BLOCK
  5
5
330
2
100
AcDbEntity
  8
0
100
AcDbBlockBegin
  2
*Model_Space
 70
     0
 10
0.0
 20
0.0
 30
0.0
  3
*Model_Space
  1

  0
ENDBLK
  5
16
330
2
100
AcDbEntity
  8
0
100
AcDbBlockEnd
  0
BLOCK
  5
1A
330
19
100
AcDbEntity
 67
     1
  8
0
100
AcDbBlockBegin
  2
*Paper_Space
 70
     0
 10
0.0
 20
0.0
 30
0.0
  3
*Paper_Space
  1

  0
ENDBLK
  5
1B
330
19
100
AcDbEntity
 67
     1
  8
0
100
AcDbBlockEnd
  0
ENDSEC
  0
SECTION
  2
ENTITIES
  0
LINE
  5
75
330
2
100
AcDbEntity
  8
LOCKABLE DOWEL DOWEL COMPONENT
100
AcDbLine
 10
-402.8157996400925
 20
2510.358127293447
 30
0.0
 11
-402.8157996400925
 21
2536.358127293446
 31
0.0
  0
LINE
  5
77
330
2
100
AcDbEntity
  8
LOCKABLE DOWEL DOWEL COMPONENT
 48
0.5
100
AcDbLine
 10
25.48420035991035
 20
2538.358127293446
 30
0.0
 11
-182.8157996400932
 21
2538.358127293447
 31
0.0
  0
LINE
  5
78
330
2
100
AcDbEntity
  8
LOCKABLE DOWEL DOWEL COMPONENT
 48
0.5
100
AcDbLine
 10
25.48420035990716
 20
2508.358127293446
 30
0.0
 11
-182.8157996400928
 21
2508.358127293446
 31
0.0
  0
LINE
  5
79
330
2
100
AcDbEntity
  8
LOCKABLE DOWEL DOWEL COMPONENT
100
AcDbLine
 10
-186.8157996400928
 20
2471.858127293446
 30
0.0
 11
-186.8157996400928
 21
2574.858127293446
 31
0.0
  0
LINE
  5
7A
330
2
100
AcDbEntity
  8
LOCKABLE DOWEL DOWEL COMPONENT
100
AcDbLine
 10
-182.8157996400928
 20
2471.858127293446
 30
0.0
 11
-182.8157996400932
 21
2574.858127293446
 31
0.0
  0
LINE
  5
7B
330
2
100
AcDbEntity
  8
LOCKABLE DOWEL DOWEL COMPONENT
100
AcDbLine
 10
-182.8157996400928
 20
2471.858127293446
 30
0.0
 11
-186.8157996400928
 21
2471.858127293446
 31
0.0
  0
LINE
  5
7C
330
2
100
AcDbEntity
  8
LOCKABLE DOWEL DOWEL COMPONENT
100
AcDbLine
 10
-182.8157996400928
 20
2574.858127293446
 30
0.0
 11
-186.8157996400928
 21
2574.858127293446
 31
0.0
  0
ARC
  5
7D
330
2
100
AcDbEntity
  8
LOCKABLE DOWEL DOWEL COMPONENT
100
AcDbCircle
 10
-186.8157996400937
 20
2565.782369717689
 30
0.0
 40
5.0
100
AcDbArc
 50
90.0
 51
132.4610881277256
  0
ARC
  5
7E
330
2
100
AcDbEntity
  8
LOCKABLE DOWEL DOWEL COMPONENT
100
AcDbCircle
 10
-186.8157996400937
 20
2480.933884869202
 30
0.0
 40
5.0
100
AcDbArc
 50
227.5389118722744
 51
270.0
  0
HATCH
  5
7F
330
2
100
AcDbEntity
  8
LOCKABLE DOWEL DOWEL COMPONENT
100
AcDbHatch
 10
0.0
 20
0.0
 30
0.0
210
0.0
220
0.0
230
1.0
  2
SOLID
 70
     1
 71
     0
 91
        1
 92
        7
 72
     1
 73
     1
 93
        4
 10
-190.1912463256358
 20
2569.471049654071
 42
-0.1874208095671138
 10
-186.8157996400937
 20
2570.782369717689
 42
0.0
 10
-186.8157996400937
 20
2565.782369717689
 42
0.0441487956250289
 10
-189.2443710686652
 20
2568.575494938361
 42
0.0046547438598335
 97
        0
 75
     0
 76
     1
 47
0.2265801731542349
 98
        1
 10
-188.3499568910433
 20
2569.053959697116
450
        0
451
        0
460
0.0
461
0.0
452
        0
462
0.0
453
        0
470

  0
HATCH
  5
80
330
2
100
AcDbEntity
  8
LOCKABLE DOWEL DOWEL COMPONENT
100
AcDbHatch
 10
0.0
 20
0.0
 30
0.0
210
0.0
220
0.0
230
1.0
  2
SOLID
 70
     1
 71
     0
 91
        1
 92
        7
 72
     1
 73
     1
 93
        4
 10
-189.244371068668
 20
2478.140759648529
 42
0.044148795625068
 10
-186.8157996400937
 20
2480.933884869202
 42
0.0
 10
-186.8157996400937
 20
2475.933884869203
 42
-0.1874208095671125
 10
-190.1912463256358
 20
2477.245204932821
 42
0.0046547438598219
 97
        0
 75
     0
 76
     1
 47
0.2265801731542354
 98
        1
 10
-188.3515986382413
 20
2478.001731605554
450
        0
451
        0
460
0.0
461
0.0
452
        0
462
0.0
453
        0
470

  0
LINE
  5
81
330
2
100
AcDbEntity
  8
LOCKABLE DOWEL DOWEL COMPONENT
 48
0.5
100
AcDbLine
 10
-186.8157996400928
 20
2508.358127293446
 30
0.0
 11
-298.4950925121211
 21
2508.358127293446
 31
0.0
  0
LINE
  5
82
330
2
100
AcDbEntity
  8
LOCKABLE DOWEL DOWEL COMPONENT
 48
0.5
100
AcDbLine
 10
-186.8157996400928
 20
2538.358127293447
 30
0.0
 11
-298.4950925121211
 21
2538.358127293447
 31
0.0
  0
LINE
  5
83
330
2
100
AcDbEntity
  8
LOCKABLE DOWEL DOWEL COMPONENT
 62
     1
 48
0.25
100
AcDbLine
 10
-182.8157996400932
 20
2538.358127293447
 30
0.0
 11
-186.8157996400928
 21
2538.358127293447
 31
0.0
  0
LINE
  5
84
330
2
100
AcDbEntity
  8
LOCKABLE DOWEL DOWEL COMPONENT
 62
     1
 48
0.25
100
AcDbLine
 10
-182.8157996400928
 20
2508.358127293446
 30
0.0
 11
-186.8157996400928
 21
2508.358127293446
 31
0.0
  0
LINE
  5
85
330
2
100
AcDbEntity
  8
LOCKABLE DOWEL DOWEL COMPONENT
 48
0.5
100
AcDbLine
 10
-302.4950925121211
 20
2508.358127293446
 30
0.0
 11
-367.0110962812444
 21
2508.358127293446
 31
0.0
  0
LINE
  5
86
330
2
100
AcDbEntity
  8
LOCKABLE DOWEL DOWEL COMPONENT
 62
     1
 48
0.25
100
AcDbLine
 10
-298.4950925121211
 20
2508.358127293446
 30
0.0
 11
-302.4950925121211
 21
2508.358127293446
 31
0.0
  0
LINE
  5
87
330
2
100
AcDbEntity
  8
LOCKABLE DOWEL DOWEL COMPONENT
 62
     1
 48
0.25
100
AcDbLine
 10
-298.4950925121211
 20
2538.358127293447
 30
0.0
 11
-302.4950925121211
 21
2538.358127293447
 31
0.0
  0
LINE
  5
88
330
2
100
AcDbEntity
  8
LOCKABLE DOWEL DOWEL COMPONENT
 48
0.5
100
AcDbLine
 10
-302.4950925121211
 20
2538.358127293447
 30
0.0
 11
-367.0110962812439
 21
2538.358127293447
 31
0.0
  0
HATCH
  5
89
330
2
100
AcDbEntity
  8
LOCKABLE DOWEL DOWEL COMPONENT
100
AcDbHatch
 10
0.0
 20
0.0
 30
0.0
210
0.0
220
0.0
230
1.0
  2
ANSI31
 70
     0
 71
     0
 91
        1
 92
        1
 93
        4
 72
     1
 10
-186.8157996400928
 20
2508.358127293446
 11
-189.3157996400928
 21
2508.358127293446
 72
     1
 10
-189.3157996400928
 20
2508.358127293446
 11
-189.3157996400928
 21
2538.358127293447
 72
     1
 10
-189.3157996400928
 20
2538.358127293447
 11
-186.8157996400928
 21
2538.358127293447
 72
     1
 10
-186.8157996400928
 20
2538.358127293447
 11
-186.8157996400928
 21
2508.358127293446
 97
        0
 75
     0
 76
     1
 52
0.0
 41
0.7
 77
     0
 78
     1
 53
135.0
 43
685.6202468269862
 44
2464.79753910385
 45
1.571544821187101
 46
1.571544821187101
 79
     0
 98
        1
 10
685.6202468269862
 20
2464.79753910385
  0
LINE
  5
8A
330
2
100
AcDbEntity
  8
LOCKABLE DOWEL DOWEL COMPONENT
100
AcDbLine
 10
-298.4950925121211
 20
2553.022921241829
 30
0.0
 11
-298.4950925121211
 21
2493.693333345064
 31
0.0
  0
ARC
  5
8B
330
2
100
AcDbEntity
  8
LOCKABLE DOWEL DOWEL COMPONENT
100
AcDbCircle
 10
-242.4950925121211
 20
2523.358127293446
 30
0.0
 40
66.0
100
AcDbArc
 50
37.30520096580216
 51
142.7420839986889
  0
ARC
  5
8C
330
2
100
AcDbEntity
  8
LOCKABLE DOWEL DOWEL COMPONENT
100
AcDbCircle
 10
-242.4950925121211
 20
2523.358127293446
 30
0.0
 40
66.0
100
AcDbArc
 50
217.2579160013125
 51
322.6947990341979
  0
ARC
  5
8D
330
2
100
AcDbEntity
  8
LOCKABLE DOWEL DOWEL COMPONENT
100
AcDbCircle
 10
-281.4950925121216
 20
2493.693333345064
 30
0.0
 40
17.0
100
AcDbArc
 50
180.0
 51
217.2579160013125
  0
ARC
  5
8E
330
2
100
AcDbEntity
  8
LOCKABLE DOWEL DOWEL COMPONENT
100
AcDbCircle
 10
-281.4950925121211
 20
2553.022921241829
 30
0.0
 40
17.0
100
AcDbArc
 50
142.7420839986889
 51
180.0
  0
LINE
  5
8F
330
2
100
AcDbEntity
  8
LOCKABLE DOWEL DOWEL COMPONENT
100
AcDbLine
 10
-189.9974735184946
 20
2483.358127293446
 30
0.0
 11
-186.8157996400928
 21
2480.933884869203
 31
0.0
  0
LINE
  5
90
330
2
100
AcDbEntity
  8
LOCKABLE DOWEL DOWEL COMPONENT
100
AcDbLine
 10
-189.9974735184946
 20
2563.358127293446
 30
0.0
 11
-186.8157996400928
 21
2565.782369717688
 31
0.0
  0
LINE
  5
91
330
2
100
AcDbEntity
  8
GRID
  6
CENTER
 48
3.0
100
AcDbLine
 10
-456.7562892501623
 20
2523.358127293446
 30
0.0
 11
161.3259679101234
 21
2523.358127293446
 31
0.0
  0
LINE
  5
96
330
2
100
AcDbEntity
  8
LOCKABLE DOWEL DOWEL COMPONENT
 62
     1
 48
0.25
100
AcDbLine
 10
-228.0540520995373
 20
2587.7588753621
 30
0.0
 11
-227.1788375290776
 21
2591.661951002623
 31
0.0
  0
LINE
  5
97
330
2
100
AcDbEntity
  8
LOCKABLE DOWEL DOWEL COMPONENT
 62
     1
 48
0.25
100
AcDbLine
 10
-256.9906012920624
 20
2587.7588753621
 30
0.0
 11
-257.8658158625221
 21
2591.661951002623
 31
0.0
  0
LINE
  5
98
330
2
100
AcDbEntity
  8
LOCKABLE DOWEL DOWEL COMPONENT
 62
     1
 48
0.25
100
AcDbLine
 10
-228.0540520995373
 20
2458.957379224793
 30
0.0
 11
-227.1788375290776
 21
2455.054303584268
 31
0.0
  0
LINE
  5
99
330
2
100
AcDbEntity
  8
LOCKABLE DOWEL DOWEL COMPONENT
 62
     1
 48
0.25
100
AcDbLine
 10
-256.9906012920624
 20
2458.957379224793
 30
0.0
 11
-257.8658158625221
 21
2455.054303584268
 31
0.0
  0
LWPOLYLINE
  5
9A
330
2
100
AcDbEntity
  8
LOCKABLE DOWEL DOWEL COMPONENT
100
AcDbPolyline
 90
        6
 70
     0
 43
0.0
 10
-186.8157996401032
 20
2480.93388486919
 42
-0.4955175090715163
 10
-298.2093782264028
 20
2480.979850224323
 42
-0.1640157736614641
 10
-302.4950925121216
 20
2493.693333345064
 10
-302.4950925121211
 20
2553.022921241829
 42
-0.1640157736614641
 10
-298.2093782264055
 20
2565.736404362566
 42
-0.4955175090715163
 10
-186.8157996401032
 20
2565.782369717703
  0
LINE
  5
9B
330
2
100
AcDbEntity
  8
LOCKABLE DOWEL DOWEL COMPONENT
100
AcDbLine
 10
-402.8157996400925
 20
2536.358127293446
 30
0.0
 11
-402.8157996400925
 21
2510.358127293447
 31
0.0
  0
LINE
  5
9C
330
2
100
AcDbEntity
  8
LOCKABLE DOWEL DOWEL COMPONENT
100
AcDbLine
 10
-365.8157996400926
 20
2538.358127293447
 30
0.0
 11
-365.8157996400926
 21
2508.358127293447
 31
0.0
  0
LINE
  5
9D
330
2
100
AcDbEntity
  8
LOCKABLE DOWEL DOWEL COMPONENT
 48
0.5
100
AcDbLine
 10
25.9842003599083
 20
2532.858127293447
 30
0.0
 11
31.18420035990812
 21
2532.858127293447
 31
0.0
  0
LINE
  5
9E
330
2
100
AcDbEntity
  8
LOCKABLE DOWEL DOWEL COMPONENT
 48
0.5
100
AcDbLine
 10
36.18420035990812
 20
2532.858127293447
 30
0.0
 11
41.38420035990793
 21
2532.858127293447
 31
0.0
  0
LINE
  5
9F
330
2
100
AcDbEntity
  8
LOCKABLE DOWEL DOWEL COMPONENT
 48
0.5
100
AcDbLine
 10
46.38420035990793
 20
2532.858127293447
 30
0.0
 11
51.58420035990821
 21
2532.858127293447
 31
0.0
  0
LINE
  5
A0
330
2
100
AcDbEntity
  8
LOCKABLE DOWEL DOWEL COMPONENT
 48
0.5
100
AcDbLine
 10
56.58420035990821
 20
2532.858127293447
 30
0.0
 11
61.78420035990803
 21
2532.858127293447
 31
0.0
  0
LINE
  5
A1
330
2
100
AcDbEntity
  8
LOCKABLE DOWEL DOWEL COMPONENT
 48
0.5
100
AcDbLine
 10
66.78420035990803
 20
2532.858127293447
 30
0.0
 11
71.9842003599083
 21
2532.858127293447
 31
0.0
  0
LINE
  5
A2
330
2
100
AcDbEntity
  8
LOCKABLE DOWEL DOWEL COMPONENT
 48
0.5
100
AcDbLine
 10
76.9842003599083
 20
2532.858127293447
 30
0.0
 11
82.18420035990812
 21
2532.858127293447
 31
0.0
  0
LINE
  5
A3
330
2
100
AcDbEntity
  8
LOCKABLE DOWEL DOWEL COMPONENT
 48
0.5
100
AcDbLine
 10
25.9842003599083
 20
2513.358127293447
 30
0.0
 11
31.18420035990812
 21
2513.358127293447
 31
0.0
  0
LINE
  5
A4
330
2
100
AcDbEntity
  8
LOCKABLE DOWEL DOWEL COMPONENT
 48
0.5
100
AcDbLine
 10
36.18420035990812
 20
2513.358127293447
 30
0.0
 11
41.38420035990793
 21
2513.358127293447
 31
0.0
  0
LINE
  5
A5
330
2
100
AcDbEntity
  8
LOCKABLE DOWEL DOWEL COMPONENT
 48
0.5
100
AcDbLine
 10
46.38420035990793
 20
2513.358127293447
 30
0.0
 11
51.58420035990821
 21
2513.358127293447
 31
0.0
  0
LINE
  5
A6
330
2
100
AcDbEntity
  8
LOCKABLE DOWEL DOWEL COMPONENT
 48
0.5
100
AcDbLine
 10
56.58420035990821
 20
2513.358127293447
 30
0.0
 11
61.78420035990803
 21
2513.358127293447
 31
0.0
  0
LINE
  5
A7
330
2
100
AcDbEntity
  8
LOCKABLE DOWEL DOWEL COMPONENT
 48
0.5
100
AcDbLine
 10
66.78420035990803
 20
2513.358127293447
 30
0.0
 11
71.9842003599083
 21
2513.358127293447
 31
0.0
  0
LINE
  5
A8
330
2
100
AcDbEntity
  8
LOCKABLE DOWEL DOWEL COMPONENT
 48
0.5
100
AcDbLine
 10
76.9842003599083
 20
2513.358127293447
 30
0.0
 11
82.18420035990812
 21
2513.358127293447
 31
0.0
  0
LINE
  5
A9
330
2
100
AcDbEntity
  8
LOCKABLE DOWEL DOWEL COMPONENT
 48
0.5
100
AcDbLine
 10
31.68420035990812
 20
2537.858127293447
 30
0.0
 11
32.38420035990794
 21
2537.858127293447
 31
0.0
  0
LINE
  5
AA
330
2
100
AcDbEntity
  8
LOCKABLE DOWEL DOWEL COMPONENT
 48
0.5
100
AcDbLine
 10
72.4842003599083
 20
2537.858127293447
 30
0.0
 11
76.4842003599083
 21
2537.858127293447
 31
0.0
  0
LINE
  5
AB
330
2
100
AcDbEntity
  8
LOCKABLE DOWEL DOWEL COMPONENT
 48
0.5
100
AcDbLine
 10
71.9842003599083
 20
2537.358127293448
 30
0.0
 11
72.4842003599083
 21
2537.858127293447
 31
0.0
  0
LINE
  5
AC
330
2
100
AcDbEntity
  8
LOCKABLE DOWEL DOWEL COMPONENT
 48
0.5
100
AcDbLine
 10
82.68420035990812
 20
2537.858127293447
 30
0.0
 11
86.68420035990811
 21
2537.858127293447
 31
0.0
  0
LINE
  5
AD
330
2
100
AcDbEntity
  8
LOCKABLE DOWEL DOWEL COMPONENT
 48
0.5
100
AcDbLine
 10
82.18420035990812
 20
2537.358127293448
 30
0.0
 11
82.68420035990812
 21
2537.858127293447
 31
0.0
  0
LINE
  5
AE
330
2
100
AcDbEntity
  8
LOCKABLE DOWEL DOWEL COMPONENT
 48
0.5
100
AcDbLine
 10
25.9842003599083
 20
2508.858127293447
 30
0.0
 11
25.4842003599083
 21
2508.358127293447
 31
0.0
  0
LINE
  5
AF
330
2
100
AcDbEntity
  8
LOCKABLE DOWEL DOWEL COMPONENT
 48
0.5
100
AcDbLine
 10
31.68420035990812
 20
2508.358127293447
 30
0.0
 11
32.38420035990794
 21
2508.358127293447
 31
0.0
  0
LINE
  5
B0
330
2
100
AcDbEntity
  8
LOCKABLE DOWEL DOWEL COMPONENT
 48
0.5
100
AcDbLine
 10
72.4842003599083
 20
2508.358127293447
 30
0.0
 11
76.4842003599083
 21
2508.358127293447
 31
0.0
  0
LINE
  5
B1
330
2
100
AcDbEntity
  8
LOCKABLE DOWEL DOWEL COMPONENT
 48
0.5
100
AcDbLine
 10
76.9842003599083
 20
2508.858127293447
 30
0.0
 11
76.4842003599083
 21
2508.358127293447
 31
0.0
  0
LINE
  5
B2
330
2
100
AcDbEntity
  8
LOCKABLE DOWEL DOWEL COMPONENT
 48
0.5
100
AcDbLine
 10
71.9842003599083
 20
2508.858127293447
 30
0.0
 11
72.4842003599083
 21
2508.358127293447
 31
0.0
  0
LINE
  5
B3
330
2
100
AcDbEntity
  8
LOCKABLE DOWEL DOWEL COMPONENT
 48
0.5
100
AcDbLine
 10
82.68420035990812
 20
2508.358127293447
 30
0.0
 11
86.68420035990811
 21
2508.358127293447
 31
0.0
  0
LINE
  5
B4
330
2
100
AcDbEntity
  8
LOCKABLE DOWEL DOWEL COMPONENT
 48
0.5
100
AcDbLine
 10
82.18420035990812
 20
2508.858127293447
 30
0.0
 11
82.68420035990812
 21
2508.358127293447
 31
0.0
  0
LINE
  5
B5
330
2
100
AcDbEntity
  8
LOCKABLE DOWEL DOWEL COMPONENT
 48
0.5
100
AcDbLine
 10
87.18420035990812
 20
2508.858127293447
 30
0.0
 11
87.18420035990812
 21
2537.358127293448
 31
0.0
  0
LINE
  5
B6
330
2
100
AcDbEntity
  8
LOCKABLE DOWEL DOWEL COMPONENT
 48
0.5
100
AcDbLine
 10
86.68420035990811
 20
2537.858127293447
 30
0.0
 11
87.18420035990812
 21
2537.358127293448
 31
0.0
  0
LINE
  5
B7
330
2
100
AcDbEntity
  8
LOCKABLE DOWEL DOWEL COMPONENT
 48
0.5
100
AcDbLine
 10
86.68420035990811
 20
2508.358127293447
 30
0.0
 11
87.18420035990812
 21
2508.858127293447
 31
0.0
  0
LINE
  5
B8
330
2
100
AcDbEntity
  8
LOCKABLE DOWEL DOWEL COMPONENT
 48
0.5
100
AcDbLine
 10
82.18420035990812
 20
2508.858127293447
 30
0.0
 11
82.18420035990812
 21
2537.358127293448
 31
0.0
  0
LINE
  5
B9
330
2
100
AcDbEntity
  8
LOCKABLE DOWEL DOWEL COMPONENT
 48
0.5
100
AcDbLine
 10
76.9842003599083
 20
2508.858127293447
 30
0.0
 11
76.9842003599083
 21
2537.358127293448
 31
0.0
  0
LINE
  5
BA
330
2
100
AcDbEntity
  8
LOCKABLE DOWEL DOWEL COMPONENT
 48
0.5
100
AcDbLine
 10
76.4842003599083
 20
2537.858127293447
 30
0.0
 11
76.9842003599083
 21
2537.358127293448
 31
0.0
  0
LINE
  5
BB
330
2
100
AcDbEntity
  8
LOCKABLE DOWEL DOWEL COMPONENT
 48
0.5
100
AcDbLine
 10
71.9842003599083
 20
2508.858127293447
 30
0.0
 11
71.9842003599083
 21
2537.358127293448
 31
0.0
  0
LINE
  5
BC
330
2
100
AcDbEntity
  8
LOCKABLE DOWEL DOWEL COMPONENT
 48
0.5
100
AcDbLine
 10
62.28420035990803
 20
2537.858127293447
 30
0.0
 11
66.28420035990803
 21
2537.858127293447
 31
0.0
  0
LINE
  5
BD
330
2
100
AcDbEntity
  8
LOCKABLE DOWEL DOWEL COMPONENT
 48
0.5
100
AcDbLine
 10
66.78420035990803
 20
2537.358127293448
 30
0.0
 11
66.28420035990803
 21
2537.858127293447
 31
0.0
  0
LINE
  5
BE
330
2
100
AcDbEntity
  8
LOCKABLE DOWEL DOWEL COMPONENT
 48
0.5
100
AcDbLine
 10
61.78420035990803
 20
2537.358127293448
 30
0.0
 11
62.28420035990803
 21
2537.858127293447
 31
0.0
  0
LINE
  5
BF
330
2
100
AcDbEntity
  8
LOCKABLE DOWEL DOWEL COMPONENT
 48
0.5
100
AcDbLine
 10
62.28420035990803
 20
2508.358127293447
 30
0.0
 11
66.28420035990803
 21
2508.358127293447
 31
0.0
  0
LINE
  5
C0
330
2
100
AcDbEntity
  8
LOCKABLE DOWEL DOWEL COMPONENT
 48
0.5
100
AcDbLine
 10
66.78420035990803
 20
2508.858127293447
 30
0.0
 11
66.28420035990803
 21
2508.358127293447
 31
0.0
  0
LINE
  5
C1
330
2
100
AcDbEntity
  8
LOCKABLE DOWEL DOWEL COMPONENT
 48
0.5
100
AcDbLine
 10
61.78420035990803
 20
2508.858127293447
 30
0.0
 11
62.28420035990803
 21
2508.358127293447
 31
0.0
  0
LINE
  5
C2
330
2
100
AcDbEntity
  8
LOCKABLE DOWEL DOWEL COMPONENT
 48
0.5
100
AcDbLine
 10
66.78420035990803
 20
2508.858127293447
 30
0.0
 11
66.78420035990803
 21
2537.358127293448
 31
0.0
  0
LINE
  5
C3
330
2
100
AcDbEntity
  8
LOCKABLE DOWEL DOWEL COMPONENT
 48
0.5
100
AcDbLine
 10
61.78420035990803
 20
2508.858127293447
 30
0.0
 11
61.78420035990803
 21
2537.358127293448
 31
0.0
  0
LINE
  5
C4
330
2
100
AcDbEntity
  8
LOCKABLE DOWEL DOWEL COMPONENT
 48
0.5
100
AcDbLine
 10
52.08420035990821
 20
2537.858127293447
 30
0.0
 11
56.08420035990821
 21
2537.858127293447
 31
0.0
  0
LINE
  5
C5
330
2
100
AcDbEntity
  8
LOCKABLE DOWEL DOWEL COMPONENT
 48
0.5
100
AcDbLine
 10
52.08420035990821
 20
2508.358127293447
 30
0.0
 11
56.08420035990821
 21
2508.358127293447
 31
0.0
  0
LINE
  5
C6
330
2
100
AcDbEntity
  8
LOCKABLE DOWEL DOWEL COMPONENT
 48
0.5
100
AcDbLine
 10
56.58420035990821
 20
2508.858127293447
 30
0.0
 11
56.08420035990821
 21
2508.358127293447
 31
0.0
  0
LINE
  5
C7
330
2
100
AcDbEntity
  8
LOCKABLE DOWEL DOWEL COMPONENT
 48
0.5
100
AcDbLine
 10
51.58420035990821
 20
2508.858127293447
 30
0.0
 11
52.08420035990821
 21
2508.358127293447
 31
0.0
  0
LINE
  5
C8
330
2
100
AcDbEntity
  8
LOCKABLE DOWEL DOWEL COMPONENT
 48
0.5
100
AcDbLine
 10
56.58420035990821
 20
2508.858127293447
 30
0.0
 11
56.58420035990821
 21
2537.358127293448
 31
0.0
  0
LINE
  5
C9
330
2
100
AcDbEntity
  8
LOCKABLE DOWEL DOWEL COMPONENT
 48
0.5
100
AcDbLine
 10
56.08420035990821
 20
2537.858127293447
 30
0.0
 11
56.58420035990821
 21
2537.358127293448
 31
0.0
  0
LINE
  5
CA
330
2
100
AcDbEntity
  8
LOCKABLE DOWEL DOWEL COMPONENT
 48
0.5
100
AcDbLine
 10
51.58420035990821
 20
2508.858127293447
 30
0.0
 11
51.58420035990821
 21
2537.358127293448
 31
0.0
  0
LINE
  5
CB
330
2
100
AcDbEntity
  8
LOCKABLE DOWEL DOWEL COMPONENT
 48
0.5
100
AcDbLine
 10
52.08420035990821
 20
2537.858127293447
 30
0.0
 11
51.58420035990821
 21
2537.358127293448
 31
0.0
  0
LINE
  5
CC
330
2
100
AcDbEntity
  8
LOCKABLE DOWEL DOWEL COMPONENT
 48
0.5
100
AcDbLine
 10
41.88420035990794
 20
2537.858127293447
 30
0.0
 11
45.88420035990793
 21
2537.858127293447
 31
0.0
  0
LINE
  5
CD
330
2
100
AcDbEntity
  8
LOCKABLE DOWEL DOWEL COMPONENT
 48
0.5
100
AcDbLine
 10
41.38420035990793
 20
2537.358127293448
 30
0.0
 11
41.88420035990794
 21
2537.858127293447
 31
0.0
  0
LINE
  5
CE
330
2
100
AcDbEntity
  8
LOCKABLE DOWEL DOWEL COMPONENT
 48
0.5
100
AcDbLine
 10
41.88420035990794
 20
2508.358127293447
 30
0.0
 11
45.88420035990793
 21
2508.358127293447
 31
0.0
  0
LINE
  5
CF
330
2
100
AcDbEntity
  8
LOCKABLE DOWEL DOWEL COMPONENT
 48
0.5
100
AcDbLine
 10
46.38420035990793
 20
2508.858127293447
 30
0.0
 11
45.88420035990793
 21
2508.358127293447
 31
0.0
  0
LINE
  5
D0
330
2
100
AcDbEntity
  8
LOCKABLE DOWEL DOWEL COMPONENT
 48
0.5
100
AcDbLine
 10
41.38420035990793
 20
2508.858127293447
 30
0.0
 11
41.88420035990794
 21
2508.358127293447
 31
0.0
  0
LINE
  5
D1
330
2
100
AcDbEntity
  8
LOCKABLE DOWEL DOWEL COMPONENT
 48
0.5
100
AcDbLine
 10
46.38420035990793
 20
2508.858127293447
 30
0.0
 11
46.38420035990793
 21
2537.358127293448
 31
0.0
  0
LINE
  5
D2
330
2
100
AcDbEntity
  8
LOCKABLE DOWEL DOWEL COMPONENT
 48
0.5
100
AcDbLine
 10
45.88420035990793
 20
2537.858127293447
 30
0.0
 11
46.38420035990793
 21
2537.358127293448
 31
0.0
  0
LINE
  5
D3
330
2
100
AcDbEntity
  8
LOCKABLE DOWEL DOWEL COMPONENT
 48
0.5
100
AcDbLine
 10
41.38420035990793
 20
2508.858127293447
 30
0.0
 11
41.38420035990793
 21
2537.358127293448
 31
0.0
  0
LINE
  5
D4
330
2
100
AcDbEntity
  8
LOCKABLE DOWEL DOWEL COMPONENT
 48
0.5
100
AcDbLine
 10
31.68420035990812
 20
2537.858127293447
 30
0.0
 11
35.68420035990812
 21
2537.858127293447
 31
0.0
  0
LINE
  5
D5
330
2
100
AcDbEntity
  8
LOCKABLE DOWEL DOWEL COMPONENT
 48
0.5
100
AcDbLine
 10
31.18420035990812
 20
2537.358127293448
 30
0.0
 11
31.68420035990812
 21
2537.858127293447
 31
0.0
  0
LINE
  5
D6
330
2
100
AcDbEntity
  8
LOCKABLE DOWEL DOWEL COMPONENT
 48
0.5
100
AcDbLine
 10
31.68420035990812
 20
2508.358127293447
 30
0.0
 11
35.68420035990812
 21
2508.358127293447
 31
0.0
  0
LINE
  5
D7
330
2
100
AcDbEntity
  8
LOCKABLE DOWEL DOWEL COMPONENT
 48
0.5
100
AcDbLine
 10
31.18420035990812
 20
2508.858127293447
 30
0.0
 11
31.68420035990812
 21
2508.358127293447
 31
0.0
  0
LINE
  5
D8
330
2
100
AcDbEntity
  8
LOCKABLE DOWEL DOWEL COMPONENT
 48
0.5
100
AcDbLine
 10
36.18420035990812
 20
2508.858127293447
 30
0.0
 11
36.18420035990812
 21
2537.358127293448
 31
0.0
  0
LINE
  5
D9
330
2
100
AcDbEntity
  8
LOCKABLE DOWEL DOWEL COMPONENT
 48
0.5
100
AcDbLine
 10
35.68420035990812
 20
2508.358127293447
 30
0.0
 11
36.18420035990812
 21
2508.858127293447
 31
0.0
  0
LINE
  5
DA
330
2
100
AcDbEntity
  8
LOCKABLE DOWEL DOWEL COMPONENT
 48
0.5
100
AcDbLine
 10
35.68420035990812
 20
2537.858127293447
 30
0.0
 11
36.18420035990812
 21
2537.358127293448
 31
0.0
  0
LINE
  5
DB
330
2
100
AcDbEntity
  8
LOCKABLE DOWEL DOWEL COMPONENT
 48
0.5
100
AcDbLine
 10
31.18420035990812
 20
2508.858127293447
 30
0.0
 11
31.18420035990812
 21
2537.358127293448
 31
0.0
  0
LINE
  5
DC
330
2
100
AcDbEntity
  8
LOCKABLE DOWEL DOWEL COMPONENT
 48
0.5
100
AcDbLine
 10
25.9842003599083
 20
2508.858127293447
 30
0.0
 11
25.9842003599083
 21
2537.858127293447
 31
0.0
  0
LINE
  5
DD
330
2
100
AcDbEntity
  8
LOCKABLE DOWEL DOWEL COMPONENT
 48
0.5
100
AcDbLine
 10
25.4842003599083
 20
2538.358127293447
 30
0.0
 11
25.9842003599083
 21
2537.858127293447
 31
0.0
  0
LINE
  5
DE
330
2
100
AcDbEntity
  8
LOCKABLE DOWEL DOWEL COMPONENT
 48
0.5
100
AcDbLine
 10
25.4842003599083
 20
2508.358127293447
 30
0.0
 11
25.4842003599083
 21
2516.930429810872
 31
0.0
  0
LINE
  5
DF
330
2
100
AcDbEntity
  8
LOCKABLE DOWEL DOWEL COMPONENT
 48
0.5
100
AcDbLine
 10
25.4842003599083
 20
2538.358127293447
 30
0.0
 11
25.4842003599083
 21
2530.240937942364
 31
0.0
  0
LINE
  5
E0
330
2
100
AcDbEntity
  8
LOCKABLE DOWEL DOWEL COMPONENT
 48
0.5
100
AcDbLine
 10
31.68420035990812
 20
2508.358127293447
 30
0.0
 11
31.68420035990812
 21
2516.930429810872
 31
0.0
  0
LINE
  5
E1
330
2
100
AcDbEntity
  8
LOCKABLE DOWEL DOWEL COMPONENT
 48
0.5
100
AcDbLine
 10
31.68420035990812
 20
2537.858127293447
 30
0.0
 11
31.68420035990812
 21
2530.240937942364
 31
0.0
  0
LINE
  5
E2
330
2
100
AcDbEntity
  8
LOCKABLE DOWEL DOWEL COMPONENT
 48
0.5
100
AcDbLine
 10
35.68420035990812
 20
2508.358127293447
 30
0.0
 11
35.68420035990812
 21
2516.930429810872
 31
0.0
  0
LINE
  5
E3
330
2
100
AcDbEntity
  8
LOCKABLE DOWEL DOWEL COMPONENT
 48
0.5
100
AcDbLine
 10
35.68420035990812
 20
2537.858127293447
 30
0.0
 11
35.68420035990812
 21
2530.240937942364
 31
0.0
  0
LINE
  5
E4
330
2
100
AcDbEntity
  8
LOCKABLE DOWEL DOWEL COMPONENT
 48
0.5
100
AcDbLine
 10
41.88420035990794
 20
2508.358127293447
 30
0.0
 11
41.88420035990794
 21
2516.930429810872
 31
0.0
  0
LINE
  5
E5
330
2
100
AcDbEntity
  8
LOCKABLE DOWEL DOWEL COMPONENT
 48
0.5
100
AcDbLine
 10
41.88420035990794
 20
2537.858127293447
 30
0.0
 11
41.88420035990794
 21
2530.240937942364
 31
0.0
  0
LINE
  5
E6
330
2
100
AcDbEntity
  8
LOCKABLE DOWEL DOWEL COMPONENT
 48
0.5
100
AcDbLine
 10
45.88420035990793
 20
2508.358127293447
 30
0.0
 11
45.88420035990793
 21
2516.930429810872
 31
0.0
  0
LINE
  5
E7
330
2
100
AcDbEntity
  8
LOCKABLE DOWEL DOWEL COMPONENT
 48
0.5
100
AcDbLine
 10
45.88420035990793
 20
2537.858127293447
 30
0.0
 11
45.88420035990793
 21
2530.240937942364
 31
0.0
  0
LINE
  5
E8
330
2
100
AcDbEntity
  8
LOCKABLE DOWEL DOWEL COMPONENT
 48
0.5
100
AcDbLine
 10
52.08420035990821
 20
2508.358127293447
 30
0.0
 11
52.08420035990821
 21
2516.930429810872
 31
0.0
  0
LINE
  5
E9
330
2
100
AcDbEntity
  8
LOCKABLE DOWEL DOWEL COMPONENT
 48
0.5
100
AcDbLine
 10
52.08420035990821
 20
2537.858127293447
 30
0.0
 11
52.08420035990821
 21
2530.240937942364
 31
0.0
  0
LINE
  5
EA
330
2
100
AcDbEntity
  8
LOCKABLE DOWEL DOWEL COMPONENT
 48
0.5
100
AcDbLine
 10
56.08420035990821
 20
2508.358127293447
 30
0.0
 11
56.08420035990821
 21
2516.930429810872
 31
0.0
  0
LINE
  5
EB
330
2
100
AcDbEntity
  8
LOCKABLE DOWEL DOWEL COMPONENT
 48
0.5
100
AcDbLine
 10
56.08420035990821
 20
2537.858127293447
 30
0.0
 11
56.08420035990821
 21
2530.240937942364
 31
0.0
  0
LINE
  5
EC
330
2
100
AcDbEntity
  8
LOCKABLE DOWEL DOWEL COMPONENT
 48
0.5
100
AcDbLine
 10
62.28420035990803
 20
2508.358127293447
 30
0.0
 11
62.28420035990803
 21
2516.930429810872
 31
0.0
  0
LINE
  5
ED
330
2
100
AcDbEntity
  8
LOCKABLE DOWEL DOWEL COMPONENT
 48
0.5
100
AcDbLine
 10
62.28420035990803
 20
2537.858127293447
 30
0.0
 11
62.28420035990803
 21
2530.240937942364
 31
0.0
  0
LINE
  5
EE
330
2
100
AcDbEntity
  8
LOCKABLE DOWEL DOWEL COMPONENT
 48
0.5
100
AcDbLine
 10
66.28420035990803
 20
2508.358127293447
 30
0.0
 11
66.28420035990803
 21
2516.930429810872
 31
0.0
  0
LINE
  5
EF
330
2
100
AcDbEntity
  8
LOCKABLE DOWEL DOWEL COMPONENT
 48
0.5
100
AcDbLine
 10
66.28420035990803
 20
2537.858127293447
 30
0.0
 11
66.28420035990803
 21
2530.240937942364
 31
0.0
  0
LINE
  5
F0
330
2
100
AcDbEntity
  8
LOCKABLE DOWEL DOWEL COMPONENT
 48
0.5
100
AcDbLine
 10
72.4842003599083
 20
2508.358127293447
 30
0.0
 11
72.4842003599083
 21
2516.930429810872
 31
0.0
  0
LINE
  5
F1
330
2
100
AcDbEntity
  8
LOCKABLE DOWEL DOWEL COMPONENT
 48
0.5
100
AcDbLine
 10
72.4842003599083
 20
2537.858127293447
 30
0.0
 11
72.4842003599083
 21
2530.240937942364
 31
0.0
  0
LINE
  5
F2
330
2
100
AcDbEntity
  8
LOCKABLE DOWEL DOWEL COMPONENT
 48
0.5
100
AcDbLine
 10
76.4842003599083
 20
2508.358127293447
 30
0.0
 11
76.4842003599083
 21
2516.930429810872
 31
0.0
  0
LINE
  5
F3
330
2
100
AcDbEntity
  8
LOCKABLE DOWEL DOWEL COMPONENT
 48
0.5
100
AcDbLine
 10
76.4842003599083
 20
2537.858127293447
 30
0.0
 11
76.4842003599083
 21
2530.240937942364
 31
0.0
  0
LINE
  5
F4
330
2
100
AcDbEntity
  8
LOCKABLE DOWEL DOWEL COMPONENT
 48
0.5
100
AcDbLine
 10
82.68420035990812
 20
2508.358127293447
 30
0.0
 11
82.68420035990812
 21
2516.930429810872
 31
0.0
  0
LINE
  5
F5
330
2
100
AcDbEntity
  8
LOCKABLE DOWEL DOWEL COMPONENT
 48
0.5
100
AcDbLine
 10
82.68420035990812
 20
2537.858127293447
 30
0.0
 11
82.68420035990812
 21
2530.240937942364
 31
0.0
  0
LINE
  5
F6
330
2
100
AcDbEntity
  8
LOCKABLE DOWEL DOWEL COMPONENT
 48
0.5
100
AcDbLine
 10
86.68420035990811
 20
2508.358127293447
 30
0.0
 11
86.68420035990811
 21
2516.930429810872
 31
0.0
  0
LINE
  5
F7
330
2
100
AcDbEntity
  8
LOCKABLE DOWEL DOWEL COMPONENT
 48
0.5
100
AcDbLine
 10
86.68420035990811
 20
2537.858127293447
 30
0.0
 11
86.68420035990811
 21
2530.240937942364
 31
0.0
  0
LINE
  5
F8
330
2
100
AcDbEntity
  8
LOCKABLE DOWEL DOWEL COMPONENT
100
AcDbLine
 10
-402.8157996400925
 20
2510.358127293447
 30
0.0
 11
-402.8157996400925
 21
2536.358127293446
 31
0.0
  0
LINE
  5
F9
330
2
100
AcDbEntity
  8
LOCKABLE DOWEL DOWEL COMPONENT
100
AcDbLine
 10
-378.0118552177539
 20
2538.358127293447
 30
0.0
 11
-389.8750267701191
 21
2538.358127293447
 31
0.0
  0
LINE
  5
FA
330
2
100
AcDbEntity
  8
LOCKABLE DOWEL DOWEL COMPONENT
100
AcDbLine
 10
-377.8785028850809
 20
2508.358127293447
 30
0.0
 11
-390.1441484027666
 21
2508.358127293446
 31
0.0
  0
LINE
  5
FB
330
2
100
AcDbEntity
  8
LOCKABLE DOWEL DOWEL COMPONENT
 48
0.5
100
AcDbLine
 10
-375.0249787415344
 20
2496.358127293448
 30
0.0
 11
-393.0110962812443
 21
2496.358127293446
 31
0.0
  0
LINE
  5
FC
330
2
100
AcDbEntity
  8
LOCKABLE DOWEL DOWEL COMPONENT
 48
0.5
100
AcDbLine
 10
-377.8785028851082
 20
2550.358127293446
 30
0.0
 11
-393.0110962812443
 21
2550.358127293444
 31
0.0
  0
LINE
  5
FD
330
2
100
AcDbEntity
  8
LOCKABLE DOWEL DOWEL COMPONENT
 48
0.5
100
AcDbLine
 10
-367.0110962812434
 20
2563.358127293446
 30
0.0
 11
-372.0110962812444
 21
2563.358127293446
 31
0.0
  0
LINE
  5
FE
330
2
100
AcDbEntity
  8
LOCKABLE DOWEL DOWEL COMPONENT
 48
0.5
100
AcDbLine
 10
-367.0110962812444
 20
2483.358127293446
 30
0.0
 11
-372.0110962812444
 21
2483.358127293446
 31
0.0
  0
LINE
  5
FF
330
2
100
AcDbEntity
  8
LOCKABLE DOWEL DOWEL COMPONENT
100
AcDbLine
 10
-402.8157996400925
 20
2536.358127293446
 30
0.0
 11
-402.8157996400925
 21
2510.358127293447
 31
0.0
  0
LINE
  5
100
330
2
100
AcDbEntity
  8
LOCKABLE DOWEL DOWEL COMPONENT
100
AcDbLine
 10
-365.8157996400926
 20
2538.358127293447
 30
0.0
 11
-365.8157996400926
 21
2508.358127293447
 31
0.0
  0
LINE
  5
101
330
2
100
AcDbEntity
  8
LOCKABLE DOWEL DOWEL COMPONENT
100
AcDbLine
 10
-367.0110962812444
 20
2510.358127293447
 30
0.0
 11
-365.8157996400926
 21
2510.358127293448
 31
0.0
  0
LINE
  5
102
330
2
100
AcDbEntity
  8
LOCKABLE DOWEL DOWEL COMPONENT
100
AcDbLine
 10
-367.0110962812444
 20
2536.358127293447
 30
0.0
 11
-365.8157996400926
 21
2536.358127293447
 31
0.0
  0
LINE
  5
103
330
2
100
AcDbEntity
  8
LOCKABLE DOWEL DOWEL COMPONENT
100
AcDbLine
 10
-367.0110962812434
 20
2563.358127293446
 30
0.0
 11
-367.0110962812444
 21
2483.358127293446
 31
0.0
  0
LINE
  5
104
330
2
100
AcDbEntity
  8
LOCKABLE DOWEL DOWEL COMPONENT
100
AcDbLine
 10
-372.0110962812444
 20
2483.358127293446
 30
0.0
 11
-372.0110962812444
 21
2563.358127293447
 31
0.0
  0
LINE
  5
105
330
2
100
AcDbEntity
  8
LOCKABLE DOWEL DOWEL COMPONENT
100
AcDbLine
 10
-396.0110962812444
 20
2499.358127293446
 30
0.0
 11
-396.0110962812444
 21
2547.358127293444
 31
0.0
  0
LINE
  5
106
330
2
100
AcDbEntity
  8
LOCKABLE DOWEL DOWEL COMPONENT
100
AcDbLine
 10
-393.0110962812443
 20
2496.358127293446
 30
0.0
 11
-396.0110962812444
 21
2499.358127293446
 31
0.0
  0
LINE
  5
107
330
2
100
AcDbEntity
  8
LOCKABLE DOWEL DOWEL COMPONENT
100
AcDbLine
 10
-393.0110962812443
 20
2550.358127293444
 30
0.0
 11
-396.0110962812444
 21
2547.358127293444
 31
0.0
  0
ARC
  5
108
330
2
100
AcDbEntity
  8
LOCKABLE DOWEL DOWEL COMPONENT
100
AcDbCircle
 10
-390.0095875864838
 20
2544.358127293445
 30
0.0
 40
6.001508694759612
100
AcDbArc
 50
88.71525421953597
 51
271.2847457804641
  0
ARC
  5
109
330
2
100
AcDbEntity
  8
LOCKABLE DOWEL DOWEL COMPONENT
100
AcDbCircle
 10
-390.0095875864838
 20
2502.358127293446
 30
0.0
 40
6.001508694759612
100
AcDbArc
 50
88.71525421953597
 51
271.2847457804641
  0
ARC
  5
10A
330
2
100
AcDbEntity
  8
LOCKABLE DOWEL DOWEL COMPONENT
100
AcDbCircle
 10
-374.2635469147683
 20
2523.216873954336
 30
0.0
 40
21.74800809161907
100
AcDbArc
 50
135.8760162951651
 51
223.0960423632748
  0
ARC
  5
10B
330
2
100
AcDbEntity
  8
LOCKABLE DOWEL DOWEL COMPONENT
100
AcDbCircle
 10
-378.0130637011619
 20
2544.358127293441
 30
0.0
 40
6.001508694759612
100
AcDbArc
 50
268.7152542195359
 51
91.28474578046402
  0
ARC
  5
10C
330
2
100
AcDbEntity
  8
LOCKABLE DOWEL DOWEL COMPONENT
100
AcDbCircle
 10
-378.0130637011482
 20
2502.358127293442
 30
0.0
 40
6.001508694759612
100
AcDbArc
 50
268.7152542195359
 51
91.28474578046402
  0
ARC
  5
10D
330
2
100
AcDbEntity
  8
LOCKABLE DOWEL DOWEL COMPONENT
100
AcDbCircle
 10
-393.7591043728637
 20
2523.216873954333
 30
0.0
 40
21.74800809161907
100
AcDbArc
 50
316.9039576367783
 51
44.12398370483489
  0
LINE
  5
10E
330
2
100
AcDbEntity
  8
LOCKABLE DOWEL DOWEL COMPONENT
100
AcDbLine
 10
-375.0659546122126
 20
2496.317520638074
 30
0.0
 11
-372.0524084737483
 21
2499.30391305558
 31
0.0
  0
LINE
  5
10F
330
2
100
AcDbEntity
  8
LOCKABLE DOWEL DOWEL COMPONENT
100
AcDbLine
 10
-374.8623599039349
 20
2550.358127293439
 30
0.0
 11
-372.0110962812444
 21
2547.480938605998
 31
0.0
  0
LINE
  5
110
330
2
100
AcDbEntity
  8
LOCKABLE DOWEL DOWEL COMPONENT
100
AcDbLine
 10
-378.1476245175129
 20
2550.358127293439
 30
0.0
 11
-374.862359903934
 21
2550.358127293439
 31
0.0
  0
LINE
  5
111
330
2
100
AcDbEntity
  8
LOCKABLE DOWEL SLEEVE
 62
     1
 48
0.25
100
AcDbLine
 10
-162.8157996400932
 20
2503.358127293445
 30
0.0
 11
-158.8157996400932
 21
2503.358127293445
 31
0.0
  0
LINE
  5
112
330
2
100
AcDbEntity
  8
LOCKABLE DOWEL SLEEVE
100
AcDbLine
 10
-43.13650676806446
 20
2503.358127293445
 30
0.0
 11
-1.960981623532006
 21
2503.358127293445
 31
0.0
  0
LINE
  5
113
330
2
100
AcDbEntity
  8
LOCKABLE DOWEL SLEEVE
  6
HIDDEN1_01
100
AcDbLine
 10
-1.960981623532006
 20
2503.358127293445
 30
0.0
 11
47.18420035990675
 21
2503.358127293445
 31
0.0
  0
LINE
  5
115
330
2
100
AcDbEntity
  8
LOCKABLE DOWEL SLEEVE
100
AcDbLine
 10
-43.13650676806446
 20
2543.358127293446
 30
0.0
 11
-1.960981623532006
 21
2543.358127293446
 31
0.0
  0
LINE
  5
116
330
2
100
AcDbEntity
  8
LOCKABLE DOWEL SLEEVE
  6
HIDDEN1_01
100
AcDbLine
 10
-1.960981623532006
 20
2543.358127293446
 30
0.0
 11
47.18420035990766
 21
2543.358127293446
 31
0.0
  0
LINE
  5
117
330
2
100
AcDbEntity
  8
LOCKABLE DOWEL SLEEVE
100
AcDbLine
 10
-162.8157996400928
 20
2574.858127293445
 30
0.0
 11
-158.8157996400932
 21
2574.858127293445
 31
0.0
  0
LINE
  5
118
330
2
100
AcDbEntity
  8
LOCKABLE DOWEL SLEEVE
100
AcDbLine
 10
-158.8157996400932
 20
2471.858127293446
 30
0.0
 11
-158.8157996400932
 21
2574.858127293445
 31
0.0
  0
LINE
  5
119
330
2
100
AcDbEntity
  8
LOCKABLE DOWEL SLEEVE
100
AcDbLine
 10
-162.8157996400928
 20
2471.858127293446
 30
0.0
 11
-162.8157996400928
 21
2574.858127293445
 31
0.0
  0
LINE
  5
11A
330
2
100
AcDbEntity
  8
LOCKABLE DOWEL SLEEVE
100
AcDbLine
 10
-162.8157996400928
 20
2471.858127293446
 30
0.0
 11
-158.8157996400932
 21
2471.858127293446
 31
0.0
  0
LINE
  5
11B
330
2
100
AcDbEntity
  8
LOCKABLE DOWEL SLEEVE
 62
     1
 48
0.25
100
AcDbLine
 10
-162.8157996400928
 20
2572.358127293445
 30
0.0
 11
-158.8157996400932
 21
2572.358127293445
 31
0.0
  0
LINE
  5
11C
330
2
100
AcDbEntity
  8
LOCKABLE DOWEL SLEEVE
 62
     1
 48
0.25
100
AcDbLine
 10
-162.8157996400928
 20
2567.358127293446
 30
0.0
 11
-158.8157996400932
 21
2567.358127293446
 31
0.0
  0
LINE
  5
11D
330
2
100
AcDbEntity
  8
LOCKABLE DOWEL SLEEVE
 62
     1
 48
0.25
100
AcDbLine
 10
-162.8157996400928
 20
2474.358127293446
 30
0.0
 11
-158.8157996400932
 21
2474.358127293446
 31
0.0
  0
LINE
  5
11E
330
2
100
AcDbEntity
  8
LOCKABLE DOWEL SLEEVE
 62
     1
 48
0.25
100
AcDbLine
 10
-162.8157996400928
 20
2479.358127293445
 30
0.0
 11
-158.8157996400932
 21
2479.358127293445
 31
0.0
  0
LINE
  5
11F
330
2
100
AcDbEntity
  8
LOCKABLE DOWEL SLEEVE
  6
HIDDEN1_01
100
AcDbLine
 10
47.18420035990675
 20
2503.358127293445
 30
0.0
 11
47.18420035990766
 21
2543.358127293446
 31
0.0
  0
LINE
  5
120
330
2
100
AcDbEntity
  8
LOCKABLE DOWEL SLEEVE
100
AcDbLine
 10
-158.8157996400932
 20
2503.358127293445
 30
0.0
 11
-47.13650676806446
 21
2503.358127293445
 31
0.0
  0
HATCH
  5
121
330
2
100
AcDbEntity
  8
LOCKABLE DOWEL SLEEVE
100
AcDbHatch
 10
0.0
 20
0.0
 30
0.0
210
0.0
220
0.0
230
1.0
  2
ANSI31
 70
     0
 71
     0
 91
        1
 92
        1
 93
        4
 72
     1
 10
-158.8157996400932
 20
2538.358127293446
 11
-156.3157996400932
 21
2538.358127293446
 72
     1
 10
-156.3157996400932
 20
2538.358127293446
 11
-156.3157996400932
 21
2508.358127293445
 72
     1
 10
-156.3157996400932
 20
2508.358127293445
 11
-158.8157996400932
 21
2508.358127293445
 72
     1
 10
-158.8157996400932
 20
2508.358127293445
 11
-158.8157996400932
 21
2538.358127293446
 97
        0
 75
     0
 76
     1
 52
180.0
 41
0.7
 77
     0
 78
     1
 53
315.0
 43
-1056.439422742733
 44
2101.04738623602
 45
-1.571544821187101
 46
-1.571544821187101
 79
     0
 98
        1
 10
-1056.439422742733
 20
2101.04738623602
  0
LINE
  5
122
330
2
100
AcDbEntity
  8
LOCKABLE DOWEL SLEEVE
 48
0.125
100
AcDbLine
 10
-166.8157996400932
 20
2569.858127293445
 30
0.0
 11
-154.8157996400928
 21
2569.858127293445
 31
0.0
  0
LINE
  5
123
330
2
100
AcDbEntity
  8
LOCKABLE DOWEL SLEEVE
 48
0.125
100
AcDbLine
 10
-166.8157996400932
 20
2476.858127293446
 30
0.0
 11
-154.8157996400928
 21
2476.858127293446
 31
0.0
  0
LINE
  5
124
330
2
100
AcDbEntity
  8
LOCKABLE DOWEL SLEEVE
 48
0.5
100
AcDbLine
 10
-112.8157996400928
 20
2529.358127293445
 30
0.0
 11
-112.8157996400928
 21
2517.358127293445
 31
0.0
  0
LINE
  5
125
330
2
100
AcDbEntity
  8
LOCKABLE DOWEL SLEEVE
100
AcDbLine
 10
-158.8157996400932
 20
2543.358127293446
 30
0.0
 11
-47.13650676806446
 21
2543.358127293446
 31
0.0
  0
LINE
  5
126
330
2
100
AcDbEntity
  8
LOCKABLE DOWEL SLEEVE
 62
     1
 48
0.25
100
AcDbLine
 10
-162.8157996400932
 20
2543.358127293446
 30
0.0
 11
-158.8157996400932
 21
2543.358127293446
 31
0.0
  0
HATCH
  5
127
330
2
100
AcDbEntity
  8
LOCKABLE DOWEL SLEEVE
100
AcDbHatch
 10
0.0
 20
0.0
 30
0.0
210
0.0
220
0.0
230
1.0
  2
SOLID
 70
     1
 71
     0
 91
        1
 92
        7
 72
     1
 73
     1
 93
        4
 10
-155.4403529545507
 20
2477.044199709217
 42
-0.1874208095671138
 10
-158.8157996400932
 20
2475.732879645598
 42
0.0
 10
-158.8157996400932
 20
2480.732879645598
 42
0.0441487956250289
 10
-156.3872282115217
 20
2477.939754424926
 42
0.0046547438598335
 97
        0
 75
     0
 76
     1
 47
0.2265801731542349
 98
        1
 10
-157.2816423891436
 20
2477.461289666172
450
        0
451
        0
460
0.0
461
0.0
452
        0
462
0.0
453
        0
470

  0
HATCH
  5
128
330
2
100
AcDbEntity
  8
LOCKABLE DOWEL SLEEVE
100
AcDbHatch
 10
0.0
 20
0.0
 30
0.0
210
0.0
220
0.0
230
1.0
  2
SOLID
 70
     1
 71
     0
 91
        1
 92
        7
 72
     1
 73
     1
 93
        4
 10
-156.3872282115189
 20
2568.576274889422
 42
0.044148795625068
 10
-158.8157996400928
 20
2565.783149668749
 42
0.0
 10
-158.8157996400928
 20
2570.783149668749
 42
-0.1874208095671125
 10
-155.4403529545507
 20
2569.471829605131
 42
0.0046547438598219
 97
        0
 75
     0
 76
     1
 47
0.2265801731542354
 98
        1
 10
-157.2800006419452
 20
2568.715302932397
450
        0
451
        0
460
0.0
461
0.0
452
        0
462
0.0
453
        0
470

  0
LINE
  5
129
330
2
100
AcDbEntity
  8
LOCKABLE DOWEL SLEEVE
100
AcDbLine
 10
-43.13650676806446
 20
2493.693333345064
 30
0.0
 11
-43.13650676806446
 21
2553.022921241829
 31
0.0
  0
LINE
  5
12A
330
2
100
AcDbEntity
  8
LOCKABLE DOWEL SLEEVE
100
AcDbLine
 10
-47.13650676806446
 20
2493.693333345064
 30
0.0
 11
-47.13650676806446
 21
2553.022921241829
 31
0.0
  0
ARC
  5
12B
330
2
100
AcDbEntity
  8
LOCKABLE DOWEL SLEEVE
100
AcDbCircle
 10
-103.1365067680644
 20
2523.358127293446
 30
0.0
 40
66.0
100
AcDbArc
 50
217.3052009658022
 51
322.7420839986875
  0
ARC
  5
12C
330
2
100
AcDbEntity
  8
LOCKABLE DOWEL SLEEVE
100
AcDbCircle
 10
-103.1365067680644
 20
2523.358127293446
 30
0.0
 40
66.0
100
AcDbArc
 50
37.25791600131109
 51
142.6947990341978
  0
ARC
  5
12D
330
2
100
AcDbEntity
  8
LOCKABLE DOWEL SLEEVE
100
AcDbCircle
 10
-64.13650676806446
 20
2553.022921241829
 30
0.0
 40
17.0
100
AcDbArc
 50
0.0
 51
37.25791600131109
  0
ARC
  5
12E
330
2
100
AcDbEntity
  8
LOCKABLE DOWEL SLEEVE
100
AcDbCircle
 10
-103.1365067680644
 20
2523.358127293446
 30
0.0
 40
70.0
100
AcDbArc
 50
217.3052009658022
 51
322.7420839986875
  0
ARC
  5
12F
330
2
100
AcDbEntity
  8
LOCKABLE DOWEL SLEEVE
100
AcDbCircle
 10
-103.1365067680644
 20
2523.358127293446
 30
0.0
 40
70.0
100
AcDbArc
 50
37.25791600131109
 51
142.6947990341978
  0
ARC
  5
130
330
2
100
AcDbEntity
  8
LOCKABLE DOWEL SLEEVE
100
AcDbCircle
 10
-64.13650676806446
 20
2553.022921241829
 30
0.0
 40
21.0
100
AcDbArc
 50
0.0
 51
37.25791600131109
  0
ARC
  5
131
330
2
100
AcDbEntity
  8
LOCKABLE DOWEL SLEEVE
100
AcDbCircle
 10
-64.13650676806492
 20
2493.693333345064
 30
0.0
 40
21.0
100
AcDbArc
 50
322.7420839986875
 51
0.0
  0
LINE
  5
132
330
2
100
AcDbEntity
  8
LOCKABLE DOWEL SLEEVE
100
AcDbLine
 10
-155.6341257616914
 20
2563.358127293446
 30
0.0
 11
-158.8157996400932
 21
2565.782369717689
 31
0.0
  0
LINE
  5
133
330
2
100
AcDbEntity
  8
LOCKABLE DOWEL SLEEVE
100
AcDbLine
 10
-155.6341257616914
 20
2483.358127293446
 30
0.0
 11
-158.8157996400932
 21
2480.933884869204
 31
0.0
  0
LINE
  5
134
330
2
100
AcDbEntity
  8
LOCKABLE DOWEL SLEEVE
 62
     1
 48
0.25
100
AcDbLine
 10
-119.9349299320042
 20
2459.531698761019
 30
0.0
 11
-120.9530161843645
 21
2455.663430365114
 31
0.0
  0
LINE
  5
135
330
2
100
AcDbEntity
  8
LOCKABLE DOWEL SLEEVE
 62
     1
 48
0.25
100
AcDbLine
 10
-86.33808360412514
 20
2459.531698761019
 30
0.0
 11
-85.31999735176487
 21
2455.663430365114
 31
0.0
  0
LINE
  5
136
330
2
100
AcDbEntity
  8
LOCKABLE DOWEL SLEEVE
 62
     1
 48
0.25
100
AcDbLine
 10
-119.9349299320042
 20
2587.184555825876
 30
0.0
 11
-120.9530161843645
 21
2591.052824221781
 31
0.0
  0
LINE
  5
137
330
2
100
AcDbEntity
  8
LOCKABLE DOWEL SLEEVE
 62
     1
 48
0.25
100
AcDbLine
 10
-86.33808360412514
 20
2587.184555825876
 30
0.0
 11
-85.31999735176487
 21
2591.052824221781
 31
0.0
  0
ARC
  5
138
330
2
100
AcDbEntity
  8
LOCKABLE DOWEL SLEEVE
100
AcDbCircle
 10
-64.13650676806446
 20
2493.693333345064
 30
0.0
 40
17.0
100
AcDbArc
 50
322.7420839986875
 51
0.0
  0
ARC
  5
139
330
2
100
AcDbEntity
  8
LOCKABLE DOWEL SLEEVE
  6
HIDDEN1_01
 62
     1
100
AcDbCircle
 10
-112.8157996400928
 20
2523.358127293445
 30
0.0
 40
1.5
100
AcDbArc
 50
58.6880038825841
 51
76.46194148736296
  0
ARC
  5
13A
330
2
100
AcDbEntity
  8
LOCKABLE DOWEL SLEEVE
  6
HIDDEN1_01
 62
     1
100
AcDbCircle
 10
-112.8157996400928
 20
2523.358127293445
 30
0.0
 40
1.5
100
AcDbArc
 50
13.53805851260769
 51
31.61188685735168
  0
ARC
  5
13B
330
2
100
AcDbEntity
  8
LOCKABLE DOWEL SLEEVE
  6
HIDDEN1_01
 62
     1
100
AcDbCircle
 10
-112.8157996400928
 20
2523.358127293445
 30
0.0
 40
1.5
100
AcDbArc
 50
328.6880038826094
 51
346.4619414873923
  0
ARC
  5
13C
330
2
100
AcDbEntity
  8
LOCKABLE DOWEL SLEEVE
  6
HIDDEN1_01
 62
     1
100
AcDbCircle
 10
-112.8157996400928
 20
2523.358127293445
 30
0.0
 40
1.5
100
AcDbArc
 50
283.538058512637
 51
301.6118868573449
  0
ARC
  5
13D
330
2
100
AcDbEntity
  8
LOCKABLE DOWEL SLEEVE
  6
HIDDEN1_01
 62
     1
100
AcDbCircle
 10
-112.8157996400928
 20
2523.358127293445
 30
0.0
 40
1.5
100
AcDbArc
 50
238.6880038825832
 51
256.461941487363
  0
ARC
  5
13E
330
2
100
AcDbEntity
  8
LOCKABLE DOWEL SLEEVE
  6
HIDDEN1_01
 62
     1
100
AcDbCircle
 10
-112.8157996400928
 20
2523.358127293445
 30
0.0
 40
1.5
100
AcDbArc
 50
193.5380585126076
 51
211.6118868573503
  0
ARC
  5
13F
330
2
100
AcDbEntity
  8
LOCKABLE DOWEL SLEEVE
  6
HIDDEN1_01
 62
     1
100
AcDbCircle
 10
-112.8157996400928
 20
2523.358127293445
 30
0.0
 40
1.5
100
AcDbArc
 50
148.6880038826094
 51
166.4619414873923
  0
ARC
  5
140
330
2
100
AcDbEntity
  8
LOCKABLE DOWEL SLEEVE
  6
HIDDEN1_01
 62
     1
100
AcDbCircle
 10
-112.8157996400928
 20
2523.358127293445
 30
0.0
 40
1.5
100
AcDbArc
 50
103.538058512637
 51
121.611886857344
  0
CIRCLE
  5
141
330
2
100
AcDbEntity
  8
LOCKABLE DOWEL SLEEVE
100
AcDbCircle
 10
314.8678077910786
 20
2523.358127293446
 30
0.0
 40
17.5
  0
CIRCLE
  5
142
330
2
100
AcDbEntity
  8
LOCKABLE DOWEL SLEEVE
100
AcDbCircle
 10
314.8678077910786
 20
2523.358127293446
 30
0.0
 40
15.5
  0
LINE
  5
143
330
2
100
AcDbEntity
  8
LOCKABLE DOWEL SLEEVE
100
AcDbLine
 10
350.3678077910786
 20
2543.358127293447
 30
0.0
 11
279.3678077910786
 21
2543.358127293447
 31
0.0
  0
LINE
  5
144
330
2
100
AcDbEntity
  8
LOCKABLE DOWEL SLEEVE
100
AcDbLine
 10
350.3678077910786
 20
2503.358127293445
 30
0.0
 11
279.3678077910786
 21
2503.358127293445
 31
0.0
  0
LINE
  5
145
330
2
100
AcDbEntity
  8
LOCKABLE DOWEL SLEEVE
100
AcDbLine
 10
350.3678077910786
 20
2541.358127293446
 30
0.0
 11
279.3678077910786
 21
2541.358127293446
 31
0.0
  0
LINE
  5
146
330
2
100
AcDbEntity
  8
LOCKABLE DOWEL SLEEVE
100
AcDbLine
 10
350.3678077910786
 20
2505.358127293446
 30
0.0
 11
279.3678077910786
 21
2505.358127293446
 31
0.0
  0
LINE
  5
147
330
2
100
AcDbEntity
  8
LOCKABLE DOWEL SLEEVE
100
AcDbLine
 10
354.8678077910786
 20
2507.858127293445
 30
0.0
 11
354.8678077910786
 21
2538.858127293447
 31
0.0
  0
LINE
  5
148
330
2
100
AcDbEntity
  8
LOCKABLE DOWEL SLEEVE
100
AcDbLine
 10
352.8678077910781
 20
2507.858127293445
 30
0.0
 11
352.8678077910781
 21
2538.858127293447
 31
0.0
  0
ARC
  5
149
330
2
100
AcDbEntity
  8
LOCKABLE DOWEL SLEEVE
100
AcDbCircle
 10
350.3678077910786
 20
2507.858127293445
 30
0.0
 40
4.5
100
AcDbArc
 50
270.0
 51
0.0
  0
ARC
  5
14A
330
2
100
AcDbEntity
  8
LOCKABLE DOWEL SLEEVE
100
AcDbCircle
 10
350.3678077910786
 20
2507.858127293445
 30
0.0
 40
2.5
100
AcDbArc
 50
270.0
 51
0.0
  0
ARC
  5
14B
330
2
100
AcDbEntity
  8
LOCKABLE DOWEL SLEEVE
100
AcDbCircle
 10
350.3678077910786
 20
2538.858127293447
 30
0.0
 40
4.5
100
AcDbArc
 50
0.0
 51
90.0
  0
ARC
  5
14C
330
2
100
AcDbEntity
  8
LOCKABLE DOWEL SLEEVE
100
AcDbCircle
 10
350.3678077910786
 20
2538.858127293447
 30
0.0
 40
2.5
100
AcDbArc
 50
0.0
 51
90.0
  0
LINE
  5
14D
330
2
100
AcDbEntity
  8
LOCKABLE DOWEL SLEEVE
100
AcDbLine
 10
274.8678077910781
 20
2507.858127293445
 30
0.0
 11
274.8678077910781
 21
2538.858127293447
 31
0.0
  0
LINE
  5
14E
330
2
100
AcDbEntity
  8
LOCKABLE DOWEL SLEEVE
100
AcDbLine
 10
276.8678077910781
 20
2507.858127293445
 30
0.0
 11
276.8678077910781
 21
2538.858127293447
 31
0.0
  0
ARC
  5
14F
330
2
100
AcDbEntity
  8
LOCKABLE DOWEL SLEEVE
100
AcDbCircle
 10
279.3678077910786
 20
2507.858127293445
 30
0.0
 40
4.5
100
AcDbArc
 50
180.0
 51
270.0
  0
ARC
  5
150
330
2
100
AcDbEntity
  8
LOCKABLE DOWEL SLEEVE
100
AcDbCircle
 10
279.3678077910786
 20
2507.858127293445
 30
0.0
 40
2.5
100
AcDbArc
 50
180.0
 51
270.0
  0
ARC
  5
151
330
2
100
AcDbEntity
  8
LOCKABLE DOWEL SLEEVE
100
AcDbCircle
 10
279.3678077910786
 20
2538.858127293447
 30
0.0
 40
4.5
100
AcDbArc
 50
90.0
 51
180.0
  0
ARC
  5
152
330
2
100
AcDbEntity
  8
LOCKABLE DOWEL SLEEVE
100
AcDbCircle
 10
279.3678077910786
 20
2538.858127293447
 30
0.0
 40
2.5
100
AcDbArc
 50
90.0
 51
180.0
  0
LINE
  5
153
330
2
100
AcDbEntity
  8
LOCKABLE DOWEL SLEEVE
100
AcDbLine
 10
234.3678077910781
 20
2593.358127293445
 30
0.0
 11
297.3678077910786
 21
2593.358127293444
 31
0.0
  0
LINE
  5
154
330
2
100
AcDbEntity
  8
LOCKABLE DOWEL SLEEVE
100
AcDbLine
 10
395.367807791078
 20
2453.358133252933
 30
0.0
 11
395.367807791078
 21
2471.858127293446
 31
0.0
  0
LINE
  5
155
330
2
100
AcDbEntity
  8
LOCKABLE DOWEL SLEEVE
100
AcDbLine
 10
234.3678077910786
 20
2453.358133252933
 30
0.0
 11
234.3678077910786
 21
2471.858127293446
 31
0.0
  0
LINE
  5
156
330
2
100
AcDbEntity
  8
LOCKABLE DOWEL SLEEVE
100
AcDbLine
 10
222.3678077910781
 20
2574.858127293446
 30
0.0
 11
407.3678077910784
 21
2574.858127293445
 31
0.0
  0
LINE
  5
157
330
2
100
AcDbEntity
  8
LOCKABLE DOWEL SLEEVE
100
AcDbLine
 10
222.3678077910786
 20
2471.858127293446
 30
0.0
 11
407.367807791078
 21
2471.858127293446
 31
0.0
  0
LINE
  5
158
330
2
100
AcDbEntity
  8
LOCKABLE DOWEL SLEEVE
100
AcDbLine
 10
407.367807791078
 20
2471.858127293446
 30
0.0
 11
407.3678077910784
 21
2574.858127293445
 31
0.0
  0
LINE
  5
159
330
2
100
AcDbEntity
  8
LOCKABLE DOWEL SLEEVE
100
AcDbLine
 10
222.3678077910786
 20
2471.858127293446
 30
0.0
 11
222.3678077910781
 21
2574.858127293446
 31
0.0
  0
LINE
  5
15A
330
2
100
AcDbEntity
  8
LOCKABLE DOWEL SLEEVE
100
AcDbLine
 10
395.367807791078
 20
2574.858127293446
 30
0.0
 11
395.367807791078
 21
2593.358127293445
 31
0.0
  0
LINE
  5
15B
330
2
100
AcDbEntity
  8
LOCKABLE DOWEL SLEEVE
100
AcDbLine
 10
234.3678077910781
 20
2574.858127293446
 30
0.0
 11
234.3678077910781
 21
2593.358127293445
 31
0.0
  0
LINE
  5
15C
330
2
100
AcDbEntity
  8
LOCKABLE DOWEL SLEEVE
 48
0.125
100
AcDbLine
 10
222.3678077910781
 20
2569.858127293446
 30
0.0
 11
232.3678077910781
 21
2569.858127293446
 31
0.0
  0
CIRCLE
  5
15D
330
2
100
AcDbEntity
  8
LOCKABLE DOWEL SLEEVE
100
AcDbCircle
 10
227.3678077910781
 20
2569.858127293446
 30
0.0
 40
2.5
  0
LINE
  5
15E
330
2
100
AcDbEntity
  8
LOCKABLE DOWEL SLEEVE
 48
0.125
100
AcDbLine
 10
227.3678077910781
 20
2574.858127293446
 30
0.0
 11
227.3678077910781
 21
2564.858127293446
 31
0.0
  0
LINE
  5
15F
330
2
100
AcDbEntity
  8
LOCKABLE DOWEL SLEEVE
 48
0.125
100
AcDbLine
 10
222.3678077910781
 20
2476.858127293446
 30
0.0
 11
232.3678077910781
 21
2476.858127293446
 31
0.0
  0
CIRCLE
  5
160
330
2
100
AcDbEntity
  8
LOCKABLE DOWEL SLEEVE
100
AcDbCircle
 10
227.3678077910781
 20
2476.858127293446
 30
0.0
 40
2.5
  0
LINE
  5
161
330
2
100
AcDbEntity
  8
LOCKABLE DOWEL SLEEVE
 48
0.125
100
AcDbLine
 10
227.3678077910781
 20
2481.858127293446
 30
0.0
 11
227.3678077910781
 21
2471.858127293446
 31
0.0
  0
CIRCLE
  5
162
330
2
100
AcDbEntity
  8
LOCKABLE DOWEL SLEEVE
100
AcDbCircle
 10
402.3678077910784
 20
2569.858127293446
 30
0.0
 40
2.5
  0
LINE
  5
163
330
2
100
AcDbEntity
  8
LOCKABLE DOWEL SLEEVE
 48
0.125
100
AcDbLine
 10
397.3678077910784
 20
2569.858127293446
 30
0.0
 11
407.3678077910784
 21
2569.858127293446
 31
0.0
  0
LINE
  5
164
330
2
100
AcDbEntity
  8
LOCKABLE DOWEL SLEEVE
 48
0.125
100
AcDbLine
 10
402.3678077910784
 20
2574.858127293446
 30
0.0
 11
402.3678077910784
 21
2564.858127293446
 31
0.0
  0
LINE
  5
165
330
2
100
AcDbEntity
  8
LOCKABLE DOWEL SLEEVE
 48
0.125
100
AcDbLine
 10
397.3678077910784
 20
2476.858127293446
 30
0.0
 11
407.3678077910784
 21
2476.858127293446
 31
0.0
  0
LINE
  5
166
330
2
100
AcDbEntity
  8
LOCKABLE DOWEL SLEEVE
 48
0.125
100
AcDbLine
 10
402.3678077910784
 20
2481.858127293446
 30
0.0
 11
402.3678077910784
 21
2471.858127293446
 31
0.0
  0
CIRCLE
  5
167
330
2
100
AcDbEntity
  8
LOCKABLE DOWEL SLEEVE
100
AcDbCircle
 10
402.3678077910784
 20
2476.858127293446
 30
0.0
 40
2.5
  0
LINE
  5
168
330
2
100
AcDbEntity
  8
GRID
  6
CENTER
 48
0.5
100
AcDbLine
 10
418.9303077910784
 20
2523.358127293446
 30
0.0
 11
210.8053077910781
 21
2523.358127293446
 31
0.0
  0
LINE
  5
169
330
2
100
AcDbEntity
  8
GRID
  6
CENTER
 48
0.5
100
AcDbLine
 10
314.8678077910781
 20
2445.403354488555
 30
0.0
 11
314.8678077910781
 21
2603.853517025397
 31
0.0
  0
LINE
  5
16A
330
2
100
AcDbEntity
  8
LOCKABLE DOWEL SLEEVE
100
AcDbLine
 10
332.3678077910786
 20
2593.358127293444
 30
0.0
 11
395.367807791078
 21
2593.358127293445
 31
0.0
  0
ELLIPSE
  5
16B
330
2
100
AcDbEntity
  8
LOCKABLE DOWEL SLEEVE
100
AcDbEllipse
 10
314.8678077910785
 20
2593.358127293444
 30
0.0
 11
-17.5
 21
0.0
 31
0.0
210
0.0
220
0.0
230
-1.0
 40
0.1317316040951742
 41
3.141592653589791
 42
6.283185307179586
  0
ELLIPSE
  5
16C
330
2
100
AcDbEntity
  8
LOCKABLE DOWEL SLEEVE
100
AcDbEllipse
 10
314.8678077910785
 20
2453.358127293448
 30
0.0
 11
-17.5
 21
0.0
 31
0.0
210
0.0
220
0.0
230
1.0
 40
0.1317316040951742
 41
3.141592653589793
 42
6.283185307179586
  0
LINE
  5
16D
330
2
100
AcDbEntity
  8
LOCKABLE DOWEL SLEEVE
100
AcDbLine
 10
332.3678077910786
 20
2453.358127293448
 30
0.0
 11
395.367807791078
 21
2453.358127293447
 31
0.0
  0
LINE
  5
16E
330
2
100
AcDbEntity
  8
LOCKABLE DOWEL SLEEVE
100
AcDbLine
 10
234.3678077910781
 20
2453.358127293447
 30
0.0
 11
297.3678077910786
 21
2453.358127293448
 31
0.0
  0
LINE
  5
16F
330
2
100
AcDbEntity
  8
LOCKABLE DOWEL FORMER
100
AcDbLine
 10
271.1120407421447
 20
2593.358127293444
 30
0.0
 11
271.0167157296218
 21
2671.59946063456
 31
0.0
  0
LINE
  5
171
330
2
100
AcDbEntity
  8
LOCKABLE DOWEL FORMER
100
AcDbLine
 10
358.7190300347807
 20
2671.59946063456
 30
0.0
 11
358.623705022258
 21
2593.358127293444
 31
0.0
  0
LINE
  5
172
330
2
100
AcDbEntity
  8
LOCKABLE DOWEL LOCKING PLATE
  6
HIDDEN1_01
100
AcDbLine
 10
324.8678077910779
 20
2523.358127293446
 30
0.0
 11
324.8678077910779
 21
2511.358127293446
 31
0.0
  0
ARC
  5
174
330
2
100
AcDbEntity
  8
LOCKABLE DOWEL LOCKING PLATE
  6
HIDDEN1_01
100
AcDbCircle
 10
314.8678077910779
 20
2523.358127293446
 30
0.0
 40
115.0
100
AcDbArc
 50
74.03809125310655
 51
105.9619087468934
  0
ARC
  5
175
330
2
100
AcDbEntity
  8
LOCKABLE DOWEL LOCKING PLATE
  6
HIDDEN1_01
100
AcDbCircle
 10
345.1176132099979
 20
2629.117047825558
 30
0.0
 40
5.0
100
AcDbArc
 50
349.2024518559269
 51
74.03809125310655
  0
ARC
  5
176
330
2
100
AcDbEntity
  8
LOCKABLE DOWEL LOCKING PLATE
  6
HIDDEN1_01
100
AcDbCircle
 10
284.6180023721577
 20
2629.117047825558
 30
0.0
 40
5.0
100
AcDbArc
 50
105.9619087468934
 51
190.7975481440731
  0
ARC
  5
177
330
2
100
AcDbEntity
  8
LOCKABLE DOWEL LOCKING PLATE
  6
HIDDEN1_01
100
AcDbCircle
 10
326.8678077910779
 20
2511.358127293446
 30
0.0
 40
2.0
100
AcDbArc
 50
180.0
 51
351.7962735766335
  0
LINE
  5
178
330
2
100
AcDbEntity
  8
LOCKABLE DOWEL LOCKING PLATE
  6
HIDDEN1_01
100
AcDbLine
 10
328.825865117798
 20
2510.950682198645
 30
0.0
 11
350.0290895521487
 21
2628.180351428376
 31
0.0
  0
LINE
  5
179
330
2
100
AcDbEntity
  8
LOCKABLE DOWEL LOCKING PLATE
  6
HIDDEN1_01
100
AcDbLine
 10
304.8678077910777
 20
2523.358127293446
 30
0.0
 11
304.8678077910777
 21
2511.358127293446
 31
0.0
  0
ARC
  5
17A
330
2
100
AcDbEntity
  8
LOCKABLE DOWEL LOCKING PLATE
  6
HIDDEN1_01
100
AcDbCircle
 10
302.8678077910777
 20
2511.358127293446
 30
0.0
 40
2.0
100
AcDbArc
 50
188.2037264233665
 51
0.0
  0
LINE
  5
17B
330
2
100
AcDbEntity
  8
LOCKABLE DOWEL LOCKING PLATE
  6
HIDDEN1_01
100
AcDbLine
 10
300.9097504643575
 20
2510.950682198645
 30
0.0
 11
279.7065260300069
 21
2628.180351428376
 31
0.0
  0
ARC
  5
17C
330
2
100
AcDbEntity
  8
LOCKABLE DOWEL LOCKING PLATE
  6
HIDDEN1_01
100
AcDbCircle
 10
314.8678077910779
 20
2523.358127293446
 30
0.0
 40
10.0
100
AcDbArc
 50
0.0
 51
180.0
  0
LINE
  5
17D
330
2
100
AcDbEntity
  8
LOCKABLE DOWEL DOWEL COMPONENT
100
AcDbLine
 10
-402.8157996400925
 20
2536.358127293446
 30
0.0
 11
-402.8157996400925
 21
2510.358127293447
 31
0.0
  0
LINE
  5
17E
330
2
100
AcDbEntity
  8
LOCKABLE DOWEL DOWEL COMPONENT
100
AcDbLine
 10
-402.8157996400925
 20
2510.358127293447
 30
0.0
 11
-402.8157996400925
 21
2536.358127293446
 31
0.0
  0
LINE
  5
17F
330
2
100
AcDbEntity
  8
LOCKABLE DOWEL DOWEL COMPONENT
100
AcDbLine
 10
-402.8157996400925
 20
2510.358127293447
 30
0.0
 11
-402.8157996400925
 21
2536.358127293446
 31
0.0
  0
LINE
  5
180
330
2
100
AcDbEntity
  8
LOCKABLE DOWEL DOWEL COMPONENT
100
AcDbLine
 10
-402.8157996400925
 20
2536.358127293446
 30
0.0
 11
-402.8157996400925
 21
2510.358127293447
 31
0.0
  0
LINE
  5
181
330
2
100
AcDbEntity
  8
LOCKABLE DOWEL DOWEL COMPONENT
100
AcDbLine
 10
-402.8157996400925
 20
2510.358127293447
 30
0.0
 11
-401.0110962812444
 21
2510.358127293447
 31
0.0
  0
LINE
  5
182
330
2
100
AcDbEntity
  8
LOCKABLE DOWEL DOWEL COMPONENT
100
AcDbLine
 10
-402.8157996400925
 20
2536.358127293447
 30
0.0
 11
-401.0110962812444
 21
2536.358127293447
 31
0.0
  0
LINE
  5
183
330
2
100
AcDbEntity
  8
LOCKABLE DOWEL DOWEL COMPONENT
100
AcDbLine
 10
-402.8157996400925
 20
2510.358127293447
 30
0.0
 11
-401.0110962812444
 21
2508.553423934598
 31
0.0
  0
LINE
  5
184
330
2
100
AcDbEntity
  8
LOCKABLE DOWEL DOWEL COMPONENT
100
AcDbLine
 10
-401.0110962812444
 20
2538.162830652295
 30
0.0
 11
-402.8157996400925
 21
2536.358127293447
 31
0.0
  0
LINE
  5
185
330
2
100
AcDbEntity
  8
LOCKABLE DOWEL DOWEL COMPONENT
100
AcDbLine
 10
-402.8157996400925
 20
2510.358127293447
 30
0.0
 11
-402.8157996400925
 21
2536.358127293446
 31
0.0
  0
LINE
  5
186
330
2
100
AcDbEntity
  8
LOCKABLE DOWEL DOWEL COMPONENT
100
AcDbLine
 10
-402.8157996400925
 20
2510.358127293447
 30
0.0
 11
-396.0110962812444
 21
2510.358127293447
 31
0.0
  0
LINE
  5
187
330
2
100
AcDbEntity
  8
LOCKABLE DOWEL DOWEL COMPONENT
100
AcDbLine
 10
-402.8157996400925
 20
2536.358127293447
 30
0.0
 11
-396.0110962812444
 21
2536.358127293446
 31
0.0
  0
LINE
  5
188
330
2
100
AcDbEntity
  8
LOCKABLE DOWEL DOWEL COMPONENT
100
AcDbLine
 10
-402.8157996400925
 20
2510.358127293447
 30
0.0
 11
-401.0110962812444
 21
2508.553423934598
 31
0.0
  0
LINE
  5
189
330
2
100
AcDbEntity
  8
LOCKABLE DOWEL DOWEL COMPONENT
100
AcDbLine
 10
-401.0110962812444
 20
2538.162830652295
 30
0.0
 11
-402.8157996400925
 21
2536.358127293447
 31
0.0
  0
LINE
  5
18A
330
2
100
AcDbEntity
  8
LOCKABLE DOWEL DOWEL COMPONENT
100
AcDbLine
 10
-401.0110962812444
 20
2538.162830652295
 30
0.0
 11
-396.0110962812444
 21
2538.162830652295
 31
0.0
  0
LINE
  5
18B
330
2
100
AcDbEntity
  8
LOCKABLE DOWEL DOWEL COMPONENT
100
AcDbLine
 10
-401.0110962812444
 20
2508.553423934598
 30
0.0
 11
-396.0110962812444
 21
2508.553423934598
 31
0.0
  0
LINE
  5
18C
330
2
100
AcDbEntity
  8
LOCKABLE DOWEL FORMER
  6
Continuous
370
    15
100
AcDbLine
 10
117.1842003599072
 20
2504.054880649768
 30
0.0
 11
123.039018376468
 21
2671.714932297376
 31
0.0
  0
ARC
  5
18D
330
2
100
AcDbEntity
  8
LOCKABLE DOWEL FORMER
  6
Continuous
370
    15
100
AcDbCircle
 10
114.6857232923596
 20
2504.142129391524
 30
0.0
 40
2.499999999999984
100
AcDbArc
 50
270.499999999998
 51
357.9999999999051
  0
LINE
  5
18E
330
2
100
AcDbEntity
  8
LOCKABLE DOWEL FORMER
  6
Continuous
370
    15
100
AcDbLine
 10
48.99811307736104
 20
2501.068787105722
 30
0.0
 11
114.7075396311054
 21
2501.642224583864
 31
0.0
  0
LINE
  5
18F
330
2
100
AcDbEntity
  8
LOCKABLE DOWEL FORMER
  6
Continuous
370
    15
100
AcDbLine
 10
-1.960981623532006
 20
2501.513500387914
 30
0.0
 11
48.99811307736104
 21
2501.068787105722
 31
0.0
  0
LINE
  5
190
330
2
100
AcDbEntity
  8
LOCKABLE DOWEL FORMER
  6
Continuous
370
    15
100
AcDbLine
 10
-1.960981623532006
 20
2545.214932297376
 30
0.0
 11
-1.960981623532006
 21
2501.513500387914
 31
0.0
  0
LINE
  5
191
330
2
100
AcDbEntity
  8
LOCKABLE DOWEL FORMER
  6
Continuous
370
    15
100
AcDbLine
 10
45.90170594102028
 20
2545.632623643862
 30
0.0
 11
-1.960981623532006
 21
2545.214932297376
 31
0.0
  0
ARC
  5
192
330
2
100
AcDbEntity
  8
LOCKABLE DOWEL FORMER
  6
Continuous
370
    15
100
AcDbCircle
 10
45.88861613777271
 20
2547.132566528458
 30
0.0
 40
1.499999999999998
100
AcDbArc
 50
270.5000000000014
 51
2.00000000000364
  0
LINE
  5
193
330
2
100
AcDbEntity
  8
LOCKABLE DOWEL FORMER
  6
Continuous
370
    15
100
AcDbLine
 10
47.38770237830135
 20
2547.184915773512
 30
0.0
 11
43.03901837646799
 21
2671.714932297376
 31
0.0
  0
LINE
  5
194
330
2
100
AcDbEntity
  8
LOCKABLE DOWEL FORMER
  6
Continuous
370
    15
100
AcDbLine
 10
39.82649453290219
 20
2673.232384703813
 30
0.0
 11
39.80000264707292
 21
2671.714932297376
 31
0.0
  0
ELLIPSE
  5
195
330
2
100
AcDbEntity
  8
LOCKABLE DOWEL FORMER
  6
Continuous
370
    15
100
AcDbEllipse
 10
40.82651796709171
 20
2673.214932297375
 30
0.0
 11
1.000175765803192
 21
0.0
 31
-0.0000000000000036
210
0.0000000000000036
220
0.0
230
1.0
 40
0.9998242650849963
 41
1.570796326794896
 42
3.124139361069846
  0
LINE
  5
196
330
2
100
AcDbEntity
  8
LOCKABLE DOWEL FORMER
  6
Continuous
370
    15
100
AcDbLine
 10
125.2689605607474
 20
2674.214932297376
 30
0.0
 11
40.8265179670916
 21
2674.214932297376
 31
0.0
  0
ELLIPSE
  5
197
330
2
100
AcDbEntity
  8
LOCKABLE DOWEL FORMER
  6
Continuous
370
    15
100
AcDbEllipse
 10
125.2689605607475
 20
2673.214932297375
 30
0.0
 11
1.000175765803192
 21
0.0
 31
-0.0000000000000036
210
0.0000000000000036
220
0.0
230
1.0
 40
0.9998242650849963
 41
0.0174532925199451
 42
1.570796326794896
  0
LINE
  5
198
330
2
100
AcDbEntity
  8
LOCKABLE DOWEL FORMER
  6
Continuous
370
    15
100
AcDbLine
 10
126.2954758807661
 20
2671.714932297376
 30
0.0
 11
126.2689839949371
 21
2673.232384703813
 31
0.0
  0
LINE
  5
199
330
2
100
AcDbEntity
  8
LOCKABLE DOWEL FORMER
100
AcDbLine
 10
39.80000264707292
 20
2671.714932297376
 30
0.0
 11
126.2954758807661
 21
2671.714932297376
 31
0.0
  0
LINE
  5
19A
330
2
100
AcDbEntity
  8
LOCKABLE DOWEL FORMER
100
AcDbLine
 10
267.777700000227
 20
2671.714932297376
 30
0.0
 11
361.9748398909373
 21
2671.714932297376
 31
0.0
  0
LINE
  5
19B
330
2
100
AcDbEntity
  8
LOCKABLE DOWEL FORMER
  6
Continuous
370
    15
100
AcDbLine
 10
267.8041918860563
 20
2673.232384703813
 30
0.0
 11
267.777700000227
 21
2671.714932297376
 31
0.0
  0
ELLIPSE
  5
19C
330
2
100
AcDbEntity
  8
LOCKABLE DOWEL FORMER
  6
Continuous
370
    15
100
AcDbEllipse
 10
268.8042153202458
 20
2673.214932297375
 30
0.0
 11
1.000175765803192
 21
0.0
 31
-0.0000000000000036
210
0.0000000000000036
220
0.0
230
1.0
 40
0.9998242650849963
 41
1.570796326794896
 42
3.124139361069846
  0
ELLIPSE
  5
19D
330
2
100
AcDbEntity
  8
LOCKABLE DOWEL FORMER
  6
Continuous
370
    15
100
AcDbEllipse
 10
360.9483245709185
 20
2673.214932297375
 30
0.0
 11
1.000175765803192
 21
0.0
 31
-0.0000000000000036
210
0.0000000000000036
220
0.0
230
1.0
 40
0.9998242650849963
 41
0.0174532925199451
 42
1.570796326794896
  0
LINE
  5
19E
330
2
100
AcDbEntity
  8
LOCKABLE DOWEL FORMER
  6
Continuous
370
    15
100
AcDbLine
 10
361.9748398909373
 20
2671.714932297376
 30
0.0
 11
361.9483480051081
 21
2673.232384703813
 31
0.0
  0
LINE
  5
19F
330
2
100
AcDbEntity
  8
LOCKABLE DOWEL FORMER
100
AcDbLine
 10
268.8042153202459
 20
2674.214932297376
 30
0.0
 11
360.9483245709184
 21
2674.214932297376
 31
0.0
  0
LINE
  5
1A0
330
2
100
AcDbEntity
  8
LOCKABLE DOWEL SLEEVE
  6
HIDDEN1_01
100
AcDbLine
 10
66.78420035990803
 20
2637.858127293447
 30
0.0
 11
71.78420035990803
 21
2637.858127293447
 31
0.0
  0
LINE
  5
1A1
330
2
100
AcDbEntity
  8
LOCKABLE DOWEL SLEEVE
  6
HIDDEN1_01
100
AcDbLine
 10
71.78420035990803
 20
2637.858127293447
 30
0.0
 11
71.78420035990803
 21
2508.858127293447
 31
0.0
  0
LINE
  5
1A2
330
2
100
AcDbEntity
  8
LOCKABLE DOWEL SLEEVE
  6
HIDDEN1_01
100
AcDbLine
 10
66.78420035990803
 20
2637.858127293447
 30
0.0
 11
66.78420035990803
 21
2508.858127293447
 31
0.0
  0
LINE
  5
1A3
330
2
100
AcDbEntity
  8
LOCKABLE DOWEL SLEEVE
  6
HIDDEN1_01
100
AcDbLine
 10
66.78420035990803
 20
2508.858127293447
 30
0.0
 11
71.78420035990803
 21
2508.858127293447
 31
0.0
  0
MTEXT
  5
1A4
330
2
100
AcDbEntity
  8
SPECP
 62
     6
100
AcDbMText
 10
-402.4210772721339
 20
2410.525845656579
 30
0.0
 40
5.0
 41
2822.017960969965
 71
     1
 72
     5
  1
{\H2x;HLDQ-L30} 
  7
ROMANS
 73
     1
 44
1.0
  0
LINE
  5
1A6
330
2
100
AcDbEntity
  8
LOCKABLE DOWEL SLEEVE
  6
HIDDEN1_01
100
AcDbLine
 10
271.040941964424
 20
2651.714932297375
 30
0.0
 11
358.6948037999786
 21
2651.714932297376
 31
0.0
  0
LINE
  5
1A7
330
2
100
AcDbEntity
  8
LOCKABLE DOWEL SLEEVE
  6
HIDDEN1_01
100
AcDbLine
 10
43.73556809622345
 20
2651.714932297376
 30
0.0
 11
122.3424686567123
 21
2651.714932297376
 31
0.0
  0
LINE
  5
1A8
330
2
100
AcDbEntity
  8
LOCKABLE DOWEL FORMER
100
AcDbLine
 10
126.2954758807661
 20
2335.015600654447
 30
0.0
 11
39.80000264707292
 21
2335.015600654447
 31
0.0
  0
LINE
  5
1A9
330
2
100
AcDbEntity
  8
LOCKABLE DOWEL FORMER
100
AcDbLine
 10
126.2954758807661
 20
2240.818460763737
 30
0.0
 11
39.80000264707292
 21
2240.818460763737
 31
0.0
  0
LINE
  5
1AA
330
2
100
AcDbEntity
  8
LOCKABLE DOWEL FORMER
100
AcDbLine
 10
39.80000264707292
 20
2335.015600654447
 30
0.0
 11
39.80000264707292
 21
2240.818460763737
 31
0.0
  0
LINE
  5
1AB
330
2
100
AcDbEntity
  8
LOCKABLE DOWEL FORMER
100
AcDbLine
 10
126.2954758807661
 20
2335.015600654447
 30
0.0
 11
126.2954758807661
 21
2240.818460763737
 31
0.0
  0
LINE
  5
1AC
330
2
100
AcDbEntity
  8
LOCKABLE DOWEL FORMER
100
AcDbLine
 10
-1.960981623532006
 20
2331.68125991253
 30
0.0
 11
-1.960981623532006
 21
2244.169595632416
 31
0.0
  0
LINE
  5
1AD
330
2
100
AcDbEntity
  8
LOCKABLE DOWEL FORMER
100
AcDbLine
 10
39.80000264707292
 20
2331.68125991253
 30
0.0
 11
-1.960981623532006
 21
2331.68125991253
 31
0.0
  0
LINE
  5
1AE
330
2
100
AcDbEntity
  8
LOCKABLE DOWEL FORMER
100
AcDbLine
 10
39.80000264707292
 20
2244.169595632416
 30
0.0
 11
-1.960981623532006
 21
2244.169595632416
 31
0.0
  0
LINE
  5
1AF
330
2
100
AcDbEntity
  8
LOCKABLE DOWEL FORMER
100
AcDbLine
 10
-43.13650676806446
 20
2368.425492863595
 30
0.0
 11
-158.8157996400932
 21
2368.425492863596
 31
0.0
  0
LINE
  5
1B0
330
2
100
AcDbEntity
  8
LOCKABLE DOWEL FORMER
100
AcDbLine
 10
-186.8157996400928
 20
2368.425492863596
 30
0.0
 11
-302.4950925121216
 21
2368.425492863596
 31
0.0
  0
LINE
  5
1B1
330
2
100
AcDbEntity
  8
LOCKABLE DOWEL FORMER
100
AcDbLine
 10
-43.13650676806446
 20
2207.425492863596
 30
0.0
 11
-158.8157996400932
 21
2207.425492863597
 31
0.0
  0
LINE
  5
1B2
330
2
100
AcDbEntity
  8
LOCKABLE DOWEL FORMER
100
AcDbLine
 10
-186.8157996400928
 20
2207.425492863596
 30
0.0
 11
-302.4950925121216
 21
2207.425492863596
 31
0.0
  0
LINE
  5
1B3
330
2
100
AcDbEntity
  8
LOCKABLE DOWEL FORMER
100
AcDbLine
 10
-302.4950925121216
 20
2368.425492863595
 30
0.0
 11
-302.4950925121216
 21
2207.425492863596
 31
0.0
  0
LINE
  5
1B4
330
2
100
AcDbEntity
  8
LOCKABLE DOWEL FORMER
100
AcDbLine
 10
-186.8157996400928
 20
2368.425492863595
 30
0.0
 11
-186.8157996400928
 21
2207.425492863597
 31
0.0
  0
LINE
  5
1B5
330
2
100
AcDbEntity
  8
LOCKABLE DOWEL FORMER
100
AcDbLine
 10
-158.8157996400932
 20
2368.425492863595
 30
0.0
 11
-158.8157996400932
 21
2207.425492863597
 31
0.0
  0
LINE
  5
1B6
330
2
100
AcDbEntity
  8
LOCKABLE DOWEL FORMER
100
AcDbLine
 10
-43.13650676806446
 20
2368.425492863595
 30
0.0
 11
-43.13650676806446
 21
2207.425492863596
 31
0.0
  0
LINE
  5
1B7
330
2
100
AcDbEntity
  8
LOCKABLE DOWEL FORMER
100
AcDbLine
 10
-158.8157996400932
 20
2380.425492863597
 30
0.0
 11
-162.8157996400928
 21
2380.425492863597
 31
0.0
  0
LINE
  5
1B8
330
2
100
AcDbEntity
  8
LOCKABLE DOWEL FORMER
100
AcDbLine
 10
-182.8157996400928
 20
2380.425492863596
 30
0.0
 11
-186.8157996400928
 21
2380.425492863596
 31
0.0
  0
LINE
  5
1B9
330
2
100
AcDbEntity
  8
LOCKABLE DOWEL FORMER
100
AcDbLine
 10
-158.8157996400932
 20
2195.425492863596
 30
0.0
 11
-162.8157996400928
 21
2195.425492863596
 31
0.0
  0
LINE
  5
1BA
330
2
100
AcDbEntity
  8
LOCKABLE DOWEL FORMER
100
AcDbLine
 10
-182.8157996400928
 20
2195.425492863595
 30
0.0
 11
-186.8157996400928
 21
2195.425492863595
 31
0.0
  0
LINE
  5
1BB
330
2
100
AcDbEntity
  8
LOCKABLE DOWEL FORMER
100
AcDbLine
 10
-186.8157996400928
 20
2380.425492863596
 30
0.0
 11
-186.8157996400928
 21
2195.425492863595
 31
0.0
  0
LINE
  5
1BC
330
2
100
AcDbEntity
  8
LOCKABLE DOWEL FORMER
100
AcDbLine
 10
-182.8157996400928
 20
2380.425492863597
 30
0.0
 11
-182.8157996400928
 21
2195.425492863596
 31
0.0
  0
LINE
  5
1BD
330
2
100
AcDbEntity
  8
LOCKABLE DOWEL FORMER
100
AcDbLine
 10
-162.8157996400928
 20
2380.425492863596
 30
0.0
 11
-162.8157996400928
 21
2195.425492863595
 31
0.0
  0
LINE
  5
1BE
330
2
100
AcDbEntity
  8
LOCKABLE DOWEL FORMER
100
AcDbLine
 10
-158.8157996400932
 20
2380.425492863596
 30
0.0
 11
-158.8157996400932
 21
2195.425492863596
 31
0.0
  0
LINE
  5
1BF
330
2
100
AcDbEntity
  8
LOCKABLE DOWEL FORMER
100
AcDbLine
 10
-1.960981623532006
 20
2327.925492863597
 30
0.0
 11
-43.13650676806446
 21
2327.925492863596
 31
0.0
  0
LINE
  5
1C0
330
2
100
AcDbEntity
  8
LOCKABLE DOWEL FORMER
100
AcDbLine
 10
-1.960981623532006
 20
2247.925492863596
 30
0.0
 11
-43.13650676806446
 21
2247.925492863596
 31
0.0
  0
LINE
  5
1C1
330
2
100
AcDbEntity
  8
LOCKABLE DOWEL FORMER
  6
HIDDEN
100
AcDbLine
 10
-1.960981623532006
 20
2327.925492863597
 30
0.0
 11
47.18420035990198
 21
2327.925492863596
 31
0.0
  0
LINE
  5
1C3
330
2
100
AcDbEntity
  8
LOCKABLE DOWEL FORMER
  6
HIDDEN
100
AcDbLine
 10
47.18420035990198
 20
2327.925492863596
 30
0.0
 11
47.18420035990289
 21
2247.925492863596
 31
0.0
  0
LINE
  5
1C4
330
2
100
AcDbEntity
  8
LOCKABLE DOWEL FORMER
  6
HIDDEN
100
AcDbLine
 10
47.18420035990289
 20
2247.925492863596
 30
0.0
 11
-1.960981623532006
 21
2247.925492863596
 31
0.0
  0
LINE
  5
1C5
330
2
100
AcDbEntity
  8
LOCKABLE DOWEL FORMER
  6
HIDDEN
100
AcDbLine
 10
-43.13650676806446
 20
2327.925492863596
 30
0.0
 11
-158.8157996400932
 21
2327.925492863596
 31
0.0
  0
LINE
  5
1C6
330
2
100
AcDbEntity
  8
LOCKABLE DOWEL FORMER
  6
HIDDEN
100
AcDbLine
 10
-43.13650676806446
 20
2247.925492863596
 30
0.0
 11
-158.8157996400932
 21
2247.925492863596
 31
0.0
  0
LINE
  5
1C7
330
2
100
AcDbEntity
  8
LOCKABLE DOWEL DOWEL COMPONENT
100
AcDbLine
 10
-402.8157996400925
 20
2274.917030709092
 30
0.0
 11
-402.8157996400925
 21
2300.917030709091
 31
0.0
  0
LINE
  5
1C8
330
2
100
AcDbEntity
  8
LOCKABLE DOWEL DOWEL COMPONENT
  6
HIDDEN1_01
 48
0.5
100
AcDbLine
 10
25.48420035991035
 20
2302.917030709091
 30
0.0
 11
-182.8157996400932
 21
2302.917030709091
 31
0.0
  0
LINE
  5
1C9
330
2
100
AcDbEntity
  8
LOCKABLE DOWEL DOWEL COMPONENT
  6
HIDDEN1_01
 48
0.5
100
AcDbLine
 10
25.48420035990716
 20
2272.917030709091
 30
0.0
 11
-182.8157996400928
 21
2272.917030709091
 31
0.0
  0
LINE
  5
1CA
330
2
100
AcDbEntity
  8
LOCKABLE DOWEL DOWEL COMPONENT
  6
HIDDEN1_01
 48
0.5
100
AcDbLine
 10
-186.8157996400928
 20
2272.917030709091
 30
0.0
 11
-302.4950925121216
 21
2272.917030709091
 31
0.0
  0
LINE
  5
1CB
330
2
100
AcDbEntity
  8
LOCKABLE DOWEL DOWEL COMPONENT
  6
HIDDEN1_01
 48
0.5
100
AcDbLine
 10
-186.8157996400928
 20
2302.917030709091
 30
0.0
 11
-302.4950925121216
 21
2302.917030709091
 31
0.0
  0
LINE
  5
1CC
330
2
100
AcDbEntity
  8
LOCKABLE DOWEL DOWEL COMPONENT
 48
0.5
100
AcDbLine
 10
-302.4950925121211
 20
2272.917030709091
 30
0.0
 11
-367.0110962812444
 21
2272.917030709091
 31
0.0
  0
LINE
  5
1CD
330
2
100
AcDbEntity
  8
LOCKABLE DOWEL DOWEL COMPONENT
 48
0.5
100
AcDbLine
 10
-302.4950925121211
 20
2302.917030709091
 30
0.0
 11
-367.0110962812439
 21
2302.917030709091
 31
0.0
  0
LINE
  5
1CE
330
2
100
AcDbEntity
  8
LOCKABLE DOWEL DOWEL COMPONENT
100
AcDbLine
 10
-402.8157996400925
 20
2300.917030709091
 30
0.0
 11
-402.8157996400925
 21
2274.917030709092
 31
0.0
  0
LINE
  5
1CF
330
2
100
AcDbEntity
  8
LOCKABLE DOWEL DOWEL COMPONENT
100
AcDbLine
 10
-365.8157996400926
 20
2302.917030709092
 30
0.0
 11
-365.8157996400926
 21
2272.917030709092
 31
0.0
  0
LINE
  5
1D0
330
2
100
AcDbEntity
  8
LOCKABLE DOWEL DOWEL COMPONENT
  6
HIDDEN1_01
 48
0.5
100
AcDbLine
 10
25.9842003599083
 20
2297.417030709092
 30
0.0
 11
31.18420035990812
 21
2297.417030709092
 31
0.0
  0
LINE
  5
1D1
330
2
100
AcDbEntity
  8
LOCKABLE DOWEL DOWEL COMPONENT
  6
HIDDEN1_01
 48
0.5
100
AcDbLine
 10
36.18420035990812
 20
2297.417030709092
 30
0.0
 11
41.38420035990793
 21
2297.417030709092
 31
0.0
  0
LINE
  5
1D2
330
2
100
AcDbEntity
  8
LOCKABLE DOWEL DOWEL COMPONENT
  6
HIDDEN1_01
 48
0.5
100
AcDbLine
 10
46.38420035990793
 20
2297.417030709092
 30
0.0
 11
51.58420035990821
 21
2297.417030709092
 31
0.0
  0
LINE
  5
1D3
330
2
100
AcDbEntity
  8
LOCKABLE DOWEL DOWEL COMPONENT
  6
HIDDEN1_01
 48
0.5
100
AcDbLine
 10
56.58420035990821
 20
2297.417030709092
 30
0.0
 11
61.78420035990803
 21
2297.417030709092
 31
0.0
  0
LINE
  5
1D4
330
2
100
AcDbEntity
  8
LOCKABLE DOWEL DOWEL COMPONENT
  6
HIDDEN1_01
 48
0.5
100
AcDbLine
 10
66.78420035990803
 20
2297.417030709092
 30
0.0
 11
71.9842003599083
 21
2297.417030709092
 31
0.0
  0
LINE
  5
1D5
330
2
100
AcDbEntity
  8
LOCKABLE DOWEL DOWEL COMPONENT
  6
HIDDEN1_01
 48
0.5
100
AcDbLine
 10
76.9842003599083
 20
2297.417030709092
 30
0.0
 11
82.18420035990812
 21
2297.417030709092
 31
0.0
  0
LINE
  5
1D6
330
2
100
AcDbEntity
  8
LOCKABLE DOWEL DOWEL COMPONENT
  6
HIDDEN1_01
 48
0.5
100
AcDbLine
 10
25.9842003599083
 20
2277.917030709092
 30
0.0
 11
31.18420035990812
 21
2277.917030709092
 31
0.0
  0
LINE
  5
1D7
330
2
100
AcDbEntity
  8
LOCKABLE DOWEL DOWEL COMPONENT
  6
HIDDEN1_01
 48
0.5
100
AcDbLine
 10
36.18420035990812
 20
2277.917030709092
 30
0.0
 11
41.38420035990793
 21
2277.917030709092
 31
0.0
  0
LINE
  5
1D8
330
2
100
AcDbEntity
  8
LOCKABLE DOWEL DOWEL COMPONENT
  6
HIDDEN1_01
 48
0.5
100
AcDbLine
 10
46.38420035990793
 20
2277.917030709092
 30
0.0
 11
51.58420035990821
 21
2277.917030709092
 31
0.0
  0
LINE
  5
1D9
330
2
100
AcDbEntity
  8
LOCKABLE DOWEL DOWEL COMPONENT
  6
HIDDEN1_01
 48
0.5
100
AcDbLine
 10
56.58420035990821
 20
2277.917030709092
 30
0.0
 11
61.78420035990803
 21
2277.917030709092
 31
0.0
  0
LINE
  5
1DA
330
2
100
AcDbEntity
  8
LOCKABLE DOWEL DOWEL COMPONENT
  6
HIDDEN1_01
 48
0.5
100
AcDbLine
 10
66.78420035990803
 20
2277.917030709092
 30
0.0
 11
71.9842003599083
 21
2277.917030709092
 31
0.0
  0
LINE
  5
1DB
330
2
100
AcDbEntity
  8
LOCKABLE DOWEL DOWEL COMPONENT
  6
HIDDEN1_01
 48
0.5
100
AcDbLine
 10
76.9842003599083
 20
2277.917030709092
 30
0.0
 11
82.18420035990812
 21
2277.917030709092
 31
0.0
  0
LINE
  5
1DC
330
2
100
AcDbEntity
  8
LOCKABLE DOWEL DOWEL COMPONENT
  6
HIDDEN1_01
 48
0.5
100
AcDbLine
 10
31.68420035990812
 20
2302.417030709092
 30
0.0
 11
32.38420035990794
 21
2302.417030709092
 31
0.0
  0
LINE
  5
1DD
330
2
100
AcDbEntity
  8
LOCKABLE DOWEL DOWEL COMPONENT
  6
HIDDEN1_01
 48
0.5
100
AcDbLine
 10
72.4842003599083
 20
2302.417030709092
 30
0.0
 11
76.4842003599083
 21
2302.417030709092
 31
0.0
  0
LINE
  5
1DE
330
2
100
AcDbEntity
  8
LOCKABLE DOWEL DOWEL COMPONENT
  6
HIDDEN1_01
 48
0.5
100
AcDbLine
 10
71.9842003599083
 20
2301.917030709092
 30
0.0
 11
72.4842003599083
 21
2302.417030709092
 31
0.0
  0
LINE
  5
1DF
330
2
100
AcDbEntity
  8
LOCKABLE DOWEL DOWEL COMPONENT
  6
HIDDEN1_01
 48
0.5
100
AcDbLine
 10
82.68420035990812
 20
2302.417030709092
 30
0.0
 11
86.68420035990811
 21
2302.417030709092
 31
0.0
  0
LINE
  5
1E0
330
2
100
AcDbEntity
  8
LOCKABLE DOWEL DOWEL COMPONENT
  6
HIDDEN1_01
 48
0.5
100
AcDbLine
 10
82.18420035990812
 20
2301.917030709092
 30
0.0
 11
82.68420035990812
 21
2302.417030709092
 31
0.0
  0
LINE
  5
1E1
330
2
100
AcDbEntity
  8
LOCKABLE DOWEL DOWEL COMPONENT
  6
HIDDEN1_01
 48
0.5
100
AcDbLine
 10
25.9842003599083
 20
2273.417030709092
 30
0.0
 11
25.4842003599083
 21
2272.917030709092
 31
0.0
  0
LINE
  5
1E2
330
2
100
AcDbEntity
  8
LOCKABLE DOWEL DOWEL COMPONENT
  6
HIDDEN1_01
 48
0.5
100
AcDbLine
 10
31.68420035990812
 20
2272.917030709092
 30
0.0
 11
32.38420035990794
 21
2272.917030709092
 31
0.0
  0
LINE
  5
1E3
330
2
100
AcDbEntity
  8
LOCKABLE DOWEL DOWEL COMPONENT
  6
HIDDEN1_01
 48
0.5
100
AcDbLine
 10
72.4842003599083
 20
2272.917030709092
 30
0.0
 11
76.4842003599083
 21
2272.917030709092
 31
0.0
  0
LINE
  5
1E4
330
2
100
AcDbEntity
  8
LOCKABLE DOWEL DOWEL COMPONENT
  6
HIDDEN1_01
 48
0.5
100
AcDbLine
 10
76.9842003599083
 20
2273.417030709092
 30
0.0
 11
76.4842003599083
 21
2272.917030709092
 31
0.0
  0
LINE
  5
1E5
330
2
100
AcDbEntity
  8
LOCKABLE DOWEL DOWEL COMPONENT
  6
HIDDEN1_01
 48
0.5
100
AcDbLine
 10
71.9842003599083
 20
2273.417030709092
 30
0.0
 11
72.4842003599083
 21
2272.917030709092
 31
0.0
  0
LINE
  5
1E6
330
2
100
AcDbEntity
  8
LOCKABLE DOWEL DOWEL COMPONENT
  6
HIDDEN1_01
 48
0.5
100
AcDbLine
 10
82.68420035990812
 20
2272.917030709092
 30
0.0
 11
86.68420035990811
 21
2272.917030709092
 31
0.0
  0
LINE
  5
1E7
330
2
100
AcDbEntity
  8
LOCKABLE DOWEL DOWEL COMPONENT
  6
HIDDEN1_01
 48
0.5
100
AcDbLine
 10
82.18420035990812
 20
2273.417030709092
 30
0.0
 11
82.68420035990812
 21
2272.917030709092
 31
0.0
  0
LINE
  5
1E8
330
2
100
AcDbEntity
  8
LOCKABLE DOWEL DOWEL COMPONENT
  6
HIDDEN1_01
 48
0.5
100
AcDbLine
 10
87.18420035990812
 20
2273.417030709092
 30
0.0
 11
87.18420035990812
 21
2301.917030709092
 31
0.0
  0
LINE
  5
1E9
330
2
100
AcDbEntity
  8
LOCKABLE DOWEL DOWEL COMPONENT
  6
HIDDEN1_01
 48
0.5
100
AcDbLine
 10
86.68420035990811
 20
2302.417030709092
 30
0.0
 11
87.18420035990812
 21
2301.917030709092
 31
0.0
  0
LINE
  5
1EA
330
2
100
AcDbEntity
  8
LOCKABLE DOWEL DOWEL COMPONENT
  6
HIDDEN1_01
 48
0.5
100
AcDbLine
 10
86.68420035990811
 20
2272.917030709092
 30
0.0
 11
87.18420035990812
 21
2273.417030709092
 31
0.0
  0
LINE
  5
1EB
330
2
100
AcDbEntity
  8
LOCKABLE DOWEL DOWEL COMPONENT
  6
HIDDEN1_01
 48
0.5
100
AcDbLine
 10
82.18420035990812
 20
2273.417030709092
 30
0.0
 11
82.18420035990812
 21
2301.917030709092
 31
0.0
  0
LINE
  5
1EC
330
2
100
AcDbEntity
  8
LOCKABLE DOWEL DOWEL COMPONENT
  6
HIDDEN1_01
 48
0.5
100
AcDbLine
 10
76.9842003599083
 20
2273.417030709092
 30
0.0
 11
76.9842003599083
 21
2301.917030709092
 31
0.0
  0
LINE
  5
1ED
330
2
100
AcDbEntity
  8
LOCKABLE DOWEL DOWEL COMPONENT
  6
HIDDEN1_01
 48
0.5
100
AcDbLine
 10
76.4842003599083
 20
2302.417030709092
 30
0.0
 11
76.9842003599083
 21
2301.917030709092
 31
0.0
  0
LINE
  5
1EE
330
2
100
AcDbEntity
  8
LOCKABLE DOWEL DOWEL COMPONENT
  6
HIDDEN1_01
 48
0.5
100
AcDbLine
 10
71.9842003599083
 20
2273.417030709092
 30
0.0
 11
71.9842003599083
 21
2301.917030709092
 31
0.0
  0
LINE
  5
1EF
330
2
100
AcDbEntity
  8
LOCKABLE DOWEL DOWEL COMPONENT
  6
HIDDEN1_01
 48
0.5
100
AcDbLine
 10
62.28420035990803
 20
2302.417030709092
 30
0.0
 11
66.28420035990803
 21
2302.417030709092
 31
0.0
  0
LINE
  5
1F0
330
2
100
AcDbEntity
  8
LOCKABLE DOWEL DOWEL COMPONENT
  6
HIDDEN1_01
 48
0.5
100
AcDbLine
 10
66.78420035990803
 20
2301.917030709092
 30
0.0
 11
66.28420035990803
 21
2302.417030709092
 31
0.0
  0
LINE
  5
1F1
330
2
100
AcDbEntity
  8
LOCKABLE DOWEL DOWEL COMPONENT
  6
HIDDEN1_01
 48
0.5
100
AcDbLine
 10
61.78420035990803
 20
2301.917030709092
 30
0.0
 11
62.28420035990803
 21
2302.417030709092
 31
0.0
  0
LINE
  5
1F2
330
2
100
AcDbEntity
  8
LOCKABLE DOWEL DOWEL COMPONENT
  6
HIDDEN1_01
 48
0.5
100
AcDbLine
 10
62.28420035990803
 20
2272.917030709092
 30
0.0
 11
66.28420035990803
 21
2272.917030709092
 31
0.0
  0
LINE
  5
1F3
330
2
100
AcDbEntity
  8
LOCKABLE DOWEL DOWEL COMPONENT
  6
HIDDEN1_01
 48
0.5
100
AcDbLine
 10
66.78420035990803
 20
2273.417030709092
 30
0.0
 11
66.28420035990803
 21
2272.917030709092
 31
0.0
  0
LINE
  5
1F4
330
2
100
AcDbEntity
  8
LOCKABLE DOWEL DOWEL COMPONENT
  6
HIDDEN1_01
 48
0.5
100
AcDbLine
 10
61.78420035990803
 20
2273.417030709092
 30
0.0
 11
62.28420035990803
 21
2272.917030709092
 31
0.0
  0
LINE
  5
1F5
330
2
100
AcDbEntity
  8
LOCKABLE DOWEL DOWEL COMPONENT
  6
HIDDEN1_01
 48
0.5
100
AcDbLine
 10
66.78420035990803
 20
2273.417030709092
 30
0.0
 11
66.78420035990803
 21
2301.917030709092
 31
0.0
  0
LINE
  5
1F6
330
2
100
AcDbEntity
  8
LOCKABLE DOWEL DOWEL COMPONENT
  6
HIDDEN1_01
 48
0.5
100
AcDbLine
 10
61.78420035990803
 20
2273.417030709092
 30
0.0
 11
61.78420035990803
 21
2301.917030709092
 31
0.0
  0
LINE
  5
1F7
330
2
100
AcDbEntity
  8
LOCKABLE DOWEL DOWEL COMPONENT
  6
HIDDEN1_01
 48
0.5
100
AcDbLine
 10
52.08420035990821
 20
2302.417030709092
 30
0.0
 11
56.08420035990821
 21
2302.417030709092
 31
0.0
  0
LINE
  5
1F8
330
2
100
AcDbEntity
  8
LOCKABLE DOWEL DOWEL COMPONENT
  6
HIDDEN1_01
 48
0.5
100
AcDbLine
 10
52.08420035990821
 20
2272.917030709092
 30
0.0
 11
56.08420035990821
 21
2272.917030709092
 31
0.0
  0
LINE
  5
1F9
330
2
100
AcDbEntity
  8
LOCKABLE DOWEL DOWEL COMPONENT
  6
HIDDEN1_01
 48
0.5
100
AcDbLine
 10
56.58420035990821
 20
2273.417030709092
 30
0.0
 11
56.08420035990821
 21
2272.917030709092
 31
0.0
  0
LINE
  5
1FA
330
2
100
AcDbEntity
  8
LOCKABLE DOWEL DOWEL COMPONENT
  6
HIDDEN1_01
 48
0.5
100
AcDbLine
 10
51.58420035990821
 20
2273.417030709092
 30
0.0
 11
52.08420035990821
 21
2272.917030709092
 31
0.0
  0
LINE
  5
1FB
330
2
100
AcDbEntity
  8
LOCKABLE DOWEL DOWEL COMPONENT
  6
HIDDEN1_01
 48
0.5
100
AcDbLine
 10
56.58420035990821
 20
2273.417030709092
 30
0.0
 11
56.58420035990821
 21
2301.917030709092
 31
0.0
  0
LINE
  5
1FC
330
2
100
AcDbEntity
  8
LOCKABLE DOWEL DOWEL COMPONENT
  6
HIDDEN1_01
 48
0.5
100
AcDbLine
 10
56.08420035990821
 20
2302.417030709092
 30
0.0
 11
56.58420035990821
 21
2301.917030709092
 31
0.0
  0
LINE
  5
1FD
330
2
100
AcDbEntity
  8
LOCKABLE DOWEL DOWEL COMPONENT
  6
HIDDEN1_01
 48
0.5
100
AcDbLine
 10
51.58420035990821
 20
2273.417030709092
 30
0.0
 11
51.58420035990821
 21
2301.917030709092
 31
0.0
  0
LINE
  5
1FE
330
2
100
AcDbEntity
  8
LOCKABLE DOWEL DOWEL COMPONENT
  6
HIDDEN1_01
 48
0.5
100
AcDbLine
 10
52.08420035990821
 20
2302.417030709092
 30
0.0
 11
51.58420035990821
 21
2301.917030709092
 31
0.0
  0
LINE
  5
1FF
330
2
100
AcDbEntity
  8
LOCKABLE DOWEL DOWEL COMPONENT
  6
HIDDEN1_01
 48
0.5
100
AcDbLine
 10
41.88420035990794
 20
2302.417030709092
 30
0.0
 11
45.88420035990793
 21
2302.417030709092
 31
0.0
  0
LINE
  5
200
330
2
100
AcDbEntity
  8
LOCKABLE DOWEL DOWEL COMPONENT
  6
HIDDEN1_01
 48
0.5
100
AcDbLine
 10
41.38420035990793
 20
2301.917030709092
 30
0.0
 11
41.88420035990794
 21
2302.417030709092
 31
0.0
  0
LINE
  5
201
330
2
100
AcDbEntity
  8
LOCKABLE DOWEL DOWEL COMPONENT
  6
HIDDEN1_01
 48
0.5
100
AcDbLine
 10
41.88420035990794
 20
2272.917030709092
 30
0.0
 11
45.88420035990793
 21
2272.917030709092
 31
0.0
  0
LINE
  5
202
330
2
100
AcDbEntity
  8
LOCKABLE DOWEL DOWEL COMPONENT
  6
HIDDEN1_01
 48
0.5
100
AcDbLine
 10
46.38420035990793
 20
2273.417030709092
 30
0.0
 11
45.88420035990793
 21
2272.917030709092
 31
0.0
  0
LINE
  5
203
330
2
100
AcDbEntity
  8
LOCKABLE DOWEL DOWEL COMPONENT
  6
HIDDEN1_01
 48
0.5
100
AcDbLine
 10
41.38420035990793
 20
2273.417030709092
 30
0.0
 11
41.88420035990794
 21
2272.917030709092
 31
0.0
  0
LINE
  5
204
330
2
100
AcDbEntity
  8
LOCKABLE DOWEL DOWEL COMPONENT
  6
HIDDEN1_01
 48
0.5
100
AcDbLine
 10
46.38420035990793
 20
2273.417030709092
 30
0.0
 11
46.38420035990793
 21
2301.917030709092
 31
0.0
  0
LINE
  5
205
330
2
100
AcDbEntity
  8
LOCKABLE DOWEL DOWEL COMPONENT
  6
HIDDEN1_01
 48
0.5
100
AcDbLine
 10
45.88420035990793
 20
2302.417030709092
 30
0.0
 11
46.38420035990793
 21
2301.917030709092
 31
0.0
  0
LINE
  5
206
330
2
100
AcDbEntity
  8
LOCKABLE DOWEL DOWEL COMPONENT
  6
HIDDEN1_01
 48
0.5
100
AcDbLine
 10
41.38420035990793
 20
2273.417030709092
 30
0.0
 11
41.38420035990793
 21
2301.917030709092
 31
0.0
  0
LINE
  5
207
330
2
100
AcDbEntity
  8
LOCKABLE DOWEL DOWEL COMPONENT
  6
HIDDEN1_01
 48
0.5
100
AcDbLine
 10
31.68420035990812
 20
2302.417030709092
 30
0.0
 11
35.68420035990812
 21
2302.417030709092
 31
0.0
  0
LINE
  5
208
330
2
100
AcDbEntity
  8
LOCKABLE DOWEL DOWEL COMPONENT
  6
HIDDEN1_01
 48
0.5
100
AcDbLine
 10
31.18420035990812
 20
2301.917030709092
 30
0.0
 11
31.68420035990812
 21
2302.417030709092
 31
0.0
  0
LINE
  5
209
330
2
100
AcDbEntity
  8
LOCKABLE DOWEL DOWEL COMPONENT
  6
HIDDEN1_01
 48
0.5
100
AcDbLine
 10
31.68420035990812
 20
2272.917030709092
 30
0.0
 11
35.68420035990812
 21
2272.917030709092
 31
0.0
  0
LINE
  5
20A
330
2
100
AcDbEntity
  8
LOCKABLE DOWEL DOWEL COMPONENT
  6
HIDDEN1_01
 48
0.5
100
AcDbLine
 10
31.18420035990812
 20
2273.417030709092
 30
0.0
 11
31.68420035990812
 21
2272.917030709092
 31
0.0
  0
LINE
  5
20B
330
2
100
AcDbEntity
  8
LOCKABLE DOWEL DOWEL COMPONENT
  6
HIDDEN1_01
 48
0.5
100
AcDbLine
 10
36.18420035990812
 20
2273.417030709092
 30
0.0
 11
36.18420035990812
 21
2301.917030709092
 31
0.0
  0
LINE
  5
20C
330
2
100
AcDbEntity
  8
LOCKABLE DOWEL DOWEL COMPONENT
  6
HIDDEN1_01
 48
0.5
100
AcDbLine
 10
35.68420035990812
 20
2272.917030709092
 30
0.0
 11
36.18420035990812
 21
2273.417030709092
 31
0.0
  0
LINE
  5
20D
330
2
100
AcDbEntity
  8
LOCKABLE DOWEL DOWEL COMPONENT
  6
HIDDEN1_01
 48
0.5
100
AcDbLine
 10
35.68420035990812
 20
2302.417030709092
 30
0.0
 11
36.18420035990812
 21
2301.917030709092
 31
0.0
  0
LINE
  5
20E
330
2
100
AcDbEntity
  8
LOCKABLE DOWEL DOWEL COMPONENT
  6
HIDDEN1_01
 48
0.5
100
AcDbLine
 10
31.18420035990812
 20
2273.417030709092
 30
0.0
 11
31.18420035990812
 21
2301.917030709092
 31
0.0
  0
LINE
  5
20F
330
2
100
AcDbEntity
  8
LOCKABLE DOWEL DOWEL COMPONENT
  6
HIDDEN1_01
 48
0.5
100
AcDbLine
 10
25.9842003599083
 20
2273.417030709092
 30
0.0
 11
25.9842003599083
 21
2302.417030709092
 31
0.0
  0
LINE
  5
210
330
2
100
AcDbEntity
  8
LOCKABLE DOWEL DOWEL COMPONENT
  6
HIDDEN1_01
 48
0.5
100
AcDbLine
 10
25.4842003599083
 20
2302.917030709092
 30
0.0
 11
25.9842003599083
 21
2302.417030709092
 31
0.0
  0
LINE
  5
211
330
2
100
AcDbEntity
  8
LOCKABLE DOWEL DOWEL COMPONENT
  6
HIDDEN1_01
 48
0.5
100
AcDbLine
 10
25.4842003599083
 20
2272.917030709092
 30
0.0
 11
25.4842003599083
 21
2281.489333226517
 31
0.0
  0
LINE
  5
212
330
2
100
AcDbEntity
  8
LOCKABLE DOWEL DOWEL COMPONENT
  6
HIDDEN1_01
 48
0.5
100
AcDbLine
 10
25.4842003599083
 20
2302.917030709092
 30
0.0
 11
25.4842003599083
 21
2294.799841358008
 31
0.0
  0
LINE
  5
213
330
2
100
AcDbEntity
  8
LOCKABLE DOWEL DOWEL COMPONENT
  6
HIDDEN1_01
 48
0.5
100
AcDbLine
 10
31.68420035990812
 20
2272.917030709092
 30
0.0
 11
31.68420035990812
 21
2281.489333226517
 31
0.0
  0
LINE
  5
214
330
2
100
AcDbEntity
  8
LOCKABLE DOWEL DOWEL COMPONENT
  6
HIDDEN1_01
 48
0.5
100
AcDbLine
 10
31.68420035990812
 20
2302.417030709092
 30
0.0
 11
31.68420035990812
 21
2294.799841358008
 31
0.0
  0
LINE
  5
215
330
2
100
AcDbEntity
  8
LOCKABLE DOWEL DOWEL COMPONENT
  6
HIDDEN1_01
 48
0.5
100
AcDbLine
 10
35.68420035990812
 20
2272.917030709092
 30
0.0
 11
35.68420035990812
 21
2281.489333226517
 31
0.0
  0
LINE
  5
216
330
2
100
AcDbEntity
  8
LOCKABLE DOWEL DOWEL COMPONENT
  6
HIDDEN1_01
 48
0.5
100
AcDbLine
 10
35.68420035990812
 20
2302.417030709092
 30
0.0
 11
35.68420035990812
 21
2294.799841358008
 31
0.0
  0
LINE
  5
217
330
2
100
AcDbEntity
  8
LOCKABLE DOWEL DOWEL COMPONENT
  6
HIDDEN1_01
 48
0.5
100
AcDbLine
 10
41.88420035990794
 20
2272.917030709092
 30
0.0
 11
41.88420035990794
 21
2281.489333226517
 31
0.0
  0
LINE
  5
218
330
2
100
AcDbEntity
  8
LOCKABLE DOWEL DOWEL COMPONENT
  6
HIDDEN1_01
 48
0.5
100
AcDbLine
 10
41.88420035990794
 20
2302.417030709092
 30
0.0
 11
41.88420035990794
 21
2294.799841358008
 31
0.0
  0
LINE
  5
219
330
2
100
AcDbEntity
  8
LOCKABLE DOWEL DOWEL COMPONENT
  6
HIDDEN1_01
 48
0.5
100
AcDbLine
 10
45.88420035990793
 20
2272.917030709092
 30
0.0
 11
45.88420035990793
 21
2281.489333226517
 31
0.0
  0
LINE
  5
21A
330
2
100
AcDbEntity
  8
LOCKABLE DOWEL DOWEL COMPONENT
  6
HIDDEN1_01
 48
0.5
100
AcDbLine
 10
45.88420035990793
 20
2302.417030709092
 30
0.0
 11
45.88420035990793
 21
2294.799841358008
 31
0.0
  0
LINE
  5
21B
330
2
100
AcDbEntity
  8
LOCKABLE DOWEL DOWEL COMPONENT
  6
HIDDEN1_01
 48
0.5
100
AcDbLine
 10
52.08420035990821
 20
2272.917030709092
 30
0.0
 11
52.08420035990821
 21
2281.489333226517
 31
0.0
  0
LINE
  5
21C
330
2
100
AcDbEntity
  8
LOCKABLE DOWEL DOWEL COMPONENT
  6
HIDDEN1_01
 48
0.5
100
AcDbLine
 10
52.08420035990821
 20
2302.417030709092
 30
0.0
 11
52.08420035990821
 21
2294.799841358008
 31
0.0
  0
LINE
  5
21D
330
2
100
AcDbEntity
  8
LOCKABLE DOWEL DOWEL COMPONENT
  6
HIDDEN1_01
 48
0.5
100
AcDbLine
 10
56.08420035990821
 20
2272.917030709092
 30
0.0
 11
56.08420035990821
 21
2281.489333226517
 31
0.0
  0
LINE
  5
21E
330
2
100
AcDbEntity
  8
LOCKABLE DOWEL DOWEL COMPONENT
  6
HIDDEN1_01
 48
0.5
100
AcDbLine
 10
56.08420035990821
 20
2302.417030709092
 30
0.0
 11
56.08420035990821
 21
2294.799841358008
 31
0.0
  0
LINE
  5
21F
330
2
100
AcDbEntity
  8
LOCKABLE DOWEL DOWEL COMPONENT
  6
HIDDEN1_01
 48
0.5
100
AcDbLine
 10
62.28420035990803
 20
2272.917030709092
 30
0.0
 11
62.28420035990803
 21
2281.489333226517
 31
0.0
  0
LINE
  5
220
330
2
100
AcDbEntity
  8
LOCKABLE DOWEL DOWEL COMPONENT
  6
HIDDEN1_01
 48
0.5
100
AcDbLine
 10
62.28420035990803
 20
2302.417030709092
 30
0.0
 11
62.28420035990803
 21
2294.799841358008
 31
0.0
  0
LINE
  5
221
330
2
100
AcDbEntity
  8
LOCKABLE DOWEL DOWEL COMPONENT
  6
HIDDEN1_01
 48
0.5
100
AcDbLine
 10
66.28420035990803
 20
2272.917030709092
 30
0.0
 11
66.28420035990803
 21
2281.489333226517
 31
0.0
  0
LINE
  5
222
330
2
100
AcDbEntity
  8
LOCKABLE DOWEL DOWEL COMPONENT
  6
HIDDEN1_01
 48
0.5
100
AcDbLine
 10
66.28420035990803
 20
2302.417030709092
 30
0.0
 11
66.28420035990803
 21
2294.799841358008
 31
0.0
  0
LINE
  5
223
330
2
100
AcDbEntity
  8
LOCKABLE DOWEL DOWEL COMPONENT
  6
HIDDEN1_01
 48
0.5
100
AcDbLine
 10
72.4842003599083
 20
2272.917030709092
 30
0.0
 11
72.4842003599083
 21
2281.489333226517
 31
0.0
  0
LINE
  5
224
330
2
100
AcDbEntity
  8
LOCKABLE DOWEL DOWEL COMPONENT
  6
HIDDEN1_01
 48
0.5
100
AcDbLine
 10
72.4842003599083
 20
2302.417030709092
 30
0.0
 11
72.4842003599083
 21
2294.799841358008
 31
0.0
  0
LINE
  5
225
330
2
100
AcDbEntity
  8
LOCKABLE DOWEL DOWEL COMPONENT
  6
HIDDEN1_01
 48
0.5
100
AcDbLine
 10
76.4842003599083
 20
2272.917030709092
 30
0.0
 11
76.4842003599083
 21
2281.489333226517
 31
0.0
  0
LINE
  5
226
330
2
100
AcDbEntity
  8
LOCKABLE DOWEL DOWEL COMPONENT
  6
HIDDEN1_01
 48
0.5
100
AcDbLine
 10
76.4842003599083
 20
2302.417030709092
 30
0.0
 11
76.4842003599083
 21
2294.799841358008
 31
0.0
  0
LINE
  5
227
330
2
100
AcDbEntity
  8
LOCKABLE DOWEL DOWEL COMPONENT
  6
HIDDEN1_01
 48
0.5
100
AcDbLine
 10
82.68420035990812
 20
2272.917030709092
 30
0.0
 11
82.68420035990812
 21
2281.489333226517
 31
0.0
  0
LINE
  5
228
330
2
100
AcDbEntity
  8
LOCKABLE DOWEL DOWEL COMPONENT
  6
HIDDEN1_01
 48
0.5
100
AcDbLine
 10
82.68420035990812
 20
2302.417030709092
 30
0.0
 11
82.68420035990812
 21
2294.799841358008
 31
0.0
  0
LINE
  5
229
330
2
100
AcDbEntity
  8
LOCKABLE DOWEL DOWEL COMPONENT
  6
HIDDEN1_01
 48
0.5
100
AcDbLine
 10
86.68420035990811
 20
2272.917030709092
 30
0.0
 11
86.68420035990811
 21
2281.489333226517
 31
0.0
  0
LINE
  5
22A
330
2
100
AcDbEntity
  8
LOCKABLE DOWEL DOWEL COMPONENT
  6
HIDDEN1_01
 48
0.5
100
AcDbLine
 10
86.68420035990811
 20
2302.417030709092
 30
0.0
 11
86.68420035990811
 21
2294.799841358008
 31
0.0
  0
LINE
  5
22B
330
2
100
AcDbEntity
  8
LOCKABLE DOWEL DOWEL COMPONENT
100
AcDbLine
 10
-402.8157996400925
 20
2274.917030709092
 30
0.0
 11
-402.8157996400925
 21
2300.917030709091
 31
0.0
  0
LINE
  5
22C
330
2
100
AcDbEntity
  8
LOCKABLE DOWEL DOWEL COMPONENT
100
AcDbLine
 10
-378.0118552177539
 20
2302.917030709092
 30
0.0
 11
-389.8750267701191
 21
2302.917030709091
 31
0.0
  0
LINE
  5
22D
330
2
100
AcDbEntity
  8
LOCKABLE DOWEL DOWEL COMPONENT
100
AcDbLine
 10
-377.8785028850809
 20
2272.917030709092
 30
0.0
 11
-390.1441484027666
 21
2272.917030709091
 31
0.0
  0
LINE
  5
22E
330
2
100
AcDbEntity
  8
LOCKABLE DOWEL DOWEL COMPONENT
 48
0.5
100
AcDbLine
 10
-375.0249787415344
 20
2260.917030709092
 30
0.0
 11
-393.0110962812443
 21
2260.917030709091
 31
0.0
  0
LINE
  5
22F
330
2
100
AcDbEntity
  8
LOCKABLE DOWEL DOWEL COMPONENT
 48
0.5
100
AcDbLine
 10
-377.8785028851082
 20
2314.917030709091
 30
0.0
 11
-393.0110962812443
 21
2314.917030709089
 31
0.0
  0
LINE
  5
230
330
2
100
AcDbEntity
  8
LOCKABLE DOWEL DOWEL COMPONENT
 48
0.5
100
AcDbLine
 10
-367.0110962812434
 20
2327.917030709091
 30
0.0
 11
-372.0110962812444
 21
2327.917030709091
 31
0.0
  0
LINE
  5
231
330
2
100
AcDbEntity
  8
LOCKABLE DOWEL DOWEL COMPONENT
 48
0.5
100
AcDbLine
 10
-367.0110962812444
 20
2247.917030709091
 30
0.0
 11
-372.0110962812444
 21
2247.917030709091
 31
0.0
  0
LINE
  5
232
330
2
100
AcDbEntity
  8
LOCKABLE DOWEL DOWEL COMPONENT
100
AcDbLine
 10
-402.8157996400925
 20
2300.917030709091
 30
0.0
 11
-402.8157996400925
 21
2274.917030709092
 31
0.0
  0
LINE
  5
233
330
2
100
AcDbEntity
  8
LOCKABLE DOWEL DOWEL COMPONENT
100
AcDbLine
 10
-365.8157996400926
 20
2302.917030709092
 30
0.0
 11
-365.8157996400926
 21
2272.917030709092
 31
0.0
  0
LINE
  5
234
330
2
100
AcDbEntity
  8
LOCKABLE DOWEL DOWEL COMPONENT
100
AcDbLine
 10
-367.0110962812444
 20
2274.917030709092
 30
0.0
 11
-365.8157996400926
 21
2274.917030709093
 31
0.0
  0
LINE
  5
235
330
2
100
AcDbEntity
  8
LOCKABLE DOWEL DOWEL COMPONENT
100
AcDbLine
 10
-367.0110962812444
 20
2300.917030709092
 30
0.0
 11
-365.8157996400926
 21
2300.917030709092
 31
0.0
  0
LINE
  5
236
330
2
100
AcDbEntity
  8
LOCKABLE DOWEL DOWEL COMPONENT
100
AcDbLine
 10
-367.0110962812434
 20
2327.917030709091
 30
0.0
 11
-367.0110962812444
 21
2247.917030709091
 31
0.0
  0
LINE
  5
237
330
2
100
AcDbEntity
  8
LOCKABLE DOWEL DOWEL COMPONENT
100
AcDbLine
 10
-372.0110962812444
 20
2247.917030709091
 30
0.0
 11
-372.0110962812444
 21
2327.917030709092
 31
0.0
  0
LINE
  5
238
330
2
100
AcDbEntity
  8
LOCKABLE DOWEL DOWEL COMPONENT
100
AcDbLine
 10
-396.0110962812444
 20
2263.917030709091
 30
0.0
 11
-396.0110962812444
 21
2311.917030709089
 31
0.0
  0
LINE
  5
239
330
2
100
AcDbEntity
  8
LOCKABLE DOWEL DOWEL COMPONENT
100
AcDbLine
 10
-393.0110962812443
 20
2260.917030709091
 30
0.0
 11
-396.0110962812444
 21
2263.917030709091
 31
0.0
  0
LINE
  5
23A
330
2
100
AcDbEntity
  8
LOCKABLE DOWEL DOWEL COMPONENT
100
AcDbLine
 10
-393.0110962812443
 20
2314.917030709089
 30
0.0
 11
-396.0110962812444
 21
2311.917030709089
 31
0.0
  0
ARC
  5
23B
330
2
100
AcDbEntity
  8
LOCKABLE DOWEL DOWEL COMPONENT
100
AcDbCircle
 10
-390.0095875864838
 20
2308.91703070909
 30
0.0
 40
6.001508694759612
100
AcDbArc
 50
88.71525421953597
 51
271.2847457804641
  0
ARC
  5
23C
330
2
100
AcDbEntity
  8
LOCKABLE DOWEL DOWEL COMPONENT
100
AcDbCircle
 10
-390.0095875864838
 20
2266.917030709091
 30
0.0
 40
6.001508694759612
100
AcDbArc
 50
88.71525421953597
 51
271.2847457804641
  0
ARC
  5
23D
330
2
100
AcDbEntity
  8
LOCKABLE DOWEL DOWEL COMPONENT
100
AcDbCircle
 10
-374.2635469147683
 20
2287.775777369981
 30
0.0
 40
21.74800809161907
100
AcDbArc
 50
135.8760162951651
 51
223.0960423632748
  0
ARC
  5
23E
330
2
100
AcDbEntity
  8
LOCKABLE DOWEL DOWEL COMPONENT
100
AcDbCircle
 10
-378.0130637011619
 20
2308.917030709086
 30
0.0
 40
6.001508694759612
100
AcDbArc
 50
268.7152542195359
 51
91.28474578046402
  0
ARC
  5
23F
330
2
100
AcDbEntity
  8
LOCKABLE DOWEL DOWEL COMPONENT
100
AcDbCircle
 10
-378.0130637011482
 20
2266.917030709088
 30
0.0
 40
6.001508694759612
100
AcDbArc
 50
268.7152542195359
 51
91.28474578046402
  0
ARC
  5
240
330
2
100
AcDbEntity
  8
LOCKABLE DOWEL DOWEL COMPONENT
100
AcDbCircle
 10
-393.7591043728637
 20
2287.775777369978
 30
0.0
 40
21.74800809161907
100
AcDbArc
 50
316.9039576367783
 51
44.12398370483489
  0
LINE
  5
241
330
2
100
AcDbEntity
  8
LOCKABLE DOWEL DOWEL COMPONENT
100
AcDbLine
 10
-375.0659546122126
 20
2260.876424053719
 30
0.0
 11
-372.0524084737483
 21
2263.862816471225
 31
0.0
  0
LINE
  5
242
330
2
100
AcDbEntity
  8
LOCKABLE DOWEL DOWEL COMPONENT
100
AcDbLine
 10
-374.8623599039349
 20
2314.917030709084
 30
0.0
 11
-372.0110962812444
 21
2312.039842021643
 31
0.0
  0
LINE
  5
243
330
2
100
AcDbEntity
  8
LOCKABLE DOWEL DOWEL COMPONENT
100
AcDbLine
 10
-378.1476245175129
 20
2314.917030709084
 30
0.0
 11
-374.862359903934
 21
2314.917030709084
 31
0.0
  0
LINE
  5
244
330
2
100
AcDbEntity
  8
LOCKABLE DOWEL DOWEL COMPONENT
100
AcDbLine
 10
-402.8157996400925
 20
2300.917030709091
 30
0.0
 11
-402.8157996400925
 21
2274.917030709092
 31
0.0
  0
LINE
  5
245
330
2
100
AcDbEntity
  8
LOCKABLE DOWEL DOWEL COMPONENT
100
AcDbLine
 10
-402.8157996400925
 20
2274.917030709092
 30
0.0
 11
-402.8157996400925
 21
2300.917030709091
 31
0.0
  0
LINE
  5
246
330
2
100
AcDbEntity
  8
LOCKABLE DOWEL DOWEL COMPONENT
100
AcDbLine
 10
-402.8157996400925
 20
2274.917030709092
 30
0.0
 11
-402.8157996400925
 21
2300.917030709091
 31
0.0
  0
LINE
  5
247
330
2
100
AcDbEntity
  8
LOCKABLE DOWEL DOWEL COMPONENT
100
AcDbLine
 10
-402.8157996400925
 20
2300.917030709091
 30
0.0
 11
-402.8157996400925
 21
2274.917030709092
 31
0.0
  0
LINE
  5
248
330
2
100
AcDbEntity
  8
LOCKABLE DOWEL DOWEL COMPONENT
100
AcDbLine
 10
-402.8157996400925
 20
2274.917030709092
 30
0.0
 11
-401.0110962812444
 21
2274.917030709092
 31
0.0
  0
LINE
  5
249
330
2
100
AcDbEntity
  8
LOCKABLE DOWEL DOWEL COMPONENT
100
AcDbLine
 10
-402.8157996400925
 20
2300.917030709092
 30
0.0
 11
-401.0110962812444
 21
2300.917030709092
 31
0.0
  0
LINE
  5
24A
330
2
100
AcDbEntity
  8
LOCKABLE DOWEL DOWEL COMPONENT
100
AcDbLine
 10
-402.8157996400925
 20
2274.917030709092
 30
0.0
 11
-401.0110962812444
 21
2273.112327350243
 31
0.0
  0
LINE
  5
24B
330
2
100
AcDbEntity
  8
LOCKABLE DOWEL DOWEL COMPONENT
100
AcDbLine
 10
-401.0110962812444
 20
2302.72173406794
 30
0.0
 11
-402.8157996400925
 21
2300.917030709092
 31
0.0
  0
LINE
  5
24C
330
2
100
AcDbEntity
  8
LOCKABLE DOWEL DOWEL COMPONENT
100
AcDbLine
 10
-402.8157996400925
 20
2274.917030709092
 30
0.0
 11
-402.8157996400925
 21
2300.917030709091
 31
0.0
  0
LINE
  5
24D
330
2
100
AcDbEntity
  8
LOCKABLE DOWEL DOWEL COMPONENT
100
AcDbLine
 10
-402.8157996400925
 20
2274.917030709092
 30
0.0
 11
-396.0110962812444
 21
2274.917030709092
 31
0.0
  0
LINE
  5
24E
330
2
100
AcDbEntity
  8
LOCKABLE DOWEL DOWEL COMPONENT
100
AcDbLine
 10
-402.8157996400925
 20
2300.917030709092
 30
0.0
 11
-396.0110962812444
 21
2300.917030709091
 31
0.0
  0
LINE
  5
24F
330
2
100
AcDbEntity
  8
LOCKABLE DOWEL DOWEL COMPONENT
100
AcDbLine
 10
-402.8157996400925
 20
2274.917030709092
 30
0.0
 11
-401.0110962812444
 21
2273.112327350243
 31
0.0
  0
LINE
  5
250
330
2
100
AcDbEntity
  8
LOCKABLE DOWEL DOWEL COMPONENT
100
AcDbLine
 10
-401.0110962812444
 20
2302.72173406794
 30
0.0
 11
-402.8157996400925
 21
2300.917030709092
 31
0.0
  0
LINE
  5
251
330
2
100
AcDbEntity
  8
LOCKABLE DOWEL DOWEL COMPONENT
100
AcDbLine
 10
-401.0110962812444
 20
2302.72173406794
 30
0.0
 11
-396.0110962812444
 21
2302.72173406794
 31
0.0
  0
LINE
  5
252
330
2
100
AcDbEntity
  8
LOCKABLE DOWEL DOWEL COMPONENT
100
AcDbLine
 10
-401.0110962812444
 20
2273.112327350243
 30
0.0
 11
-396.0110962812444
 21
2273.112327350243
 31
0.0
  0
LINE
  5
253
330
2
100
AcDbEntity
  8
LOCKABLE DOWEL SLEEVE
  6
HIDDEN1_01
100
AcDbLine
 10
66.78420035990803
 20
2273.417030709092
 30
0.0
 11
71.78420035990803
 21
2273.417030709092
 31
0.0
  0
LINE
  5
254
330
2
100
AcDbEntity
  8
GRID
  6
CENTER
 48
3.0
100
AcDbLine
 10
-456.7562892501623
 20
2287.917030709092
 30
0.0
 11
161.3259679101234
 21
2287.917030709092
 31
0.0
  0
LINE
  5
255
330
2
100
AcDbEntity
  8
LOCKABLE DOWEL FORMER
  6
HIDDEN1_01
100
AcDbLine
 10
66.78420035990791
 20
2252.167030709092
 30
0.0
 11
66.78420035990791
 21
2322.667030709093
 31
0.0
  0
LINE
  5
256
330
2
100
AcDbEntity
  8
LOCKABLE DOWEL FORMER
  6
HIDDEN1_01
100
AcDbLine
 10
71.78420035990791
 20
2252.167030709092
 30
0.0
 11
71.78420035990791
 21
2322.667030709093
 31
0.0
  0
LINE
  5
257
330
2
100
AcDbEntity
  8
LOCKABLE DOWEL FORMER
  6
HIDDEN1_01
100
AcDbLine
 10
66.78420035990791
 20
2252.167030709092
 30
0.0
 11
71.78420035990791
 21
2252.167030709092
 31
0.0
  0
LINE
  5
258
330
2
100
AcDbEntity
  8
LOCKABLE DOWEL FORMER
  6
HIDDEN1_01
100
AcDbLine
 10
66.78420035990791
 20
2322.667030709093
 30
0.0
 11
71.78420035990791
 21
2322.667030709093
 31
0.0
  0
ENDSEC
  0
SECTION
  2
OBJECTS
  0
DICTIONARY
  5
B
330
0
100
AcDbDictionary
281
     1
  3
ACAD_COLOR
350
49
  3
ACAD_GROUP
350
36
  3
ACAD_LAYOUT
350
18
  3
ACAD_MATERIAL
350
D
  3
ACAD_MLEADERSTYLE
350
272
  3
ACAD_MLINESTYLE
350
37
  3
ACAD_PLOTSETTINGS
350
38
  3
ACAD_PLOTSTYLENAME
350
A
  3
ACAD_SCALELIST
350
4A
  3
ACAD_TABLESTYLE
350
4B
  3
ACAD_VISUALSTYLE
350
30
  3
ACDB_RECOMPOSE_DATA
350
25C
  3
AcDbVariableDictionary
350
25D
  0
DICTIONARY
  5
31
330
2D
100
AcDbDictionary
280
     1
281
     1
  0
DICTIONARY
  5
20
330
1F
100
AcDbDictionary
280
     1
281
     1
  3
ACAD_LAYERFILTERS
360
21
  3
ACAD_LAYERSTATES
360
22
  3
ACLYDICTIONARY
360
23
  0
DICTIONARY
  5
7
330
6
100
AcDbDictionary
280
     1
281
     1
  3
ADSK_XREC_LAYER_RECONCILED
360
8
  0
DICTIONARY
  5
93
330
92
100
AcDbDictionary
280
     1
281
     1
  3
ADSK_XREC_LAYER_RECONCILED
360
94
  0
DICTIONARY
  5
3
330
2
100
AcDbDictionary
280
     1
281
     1
  3
ACAD_SORTENTS
360
259
  0
DICTIONARY
  5
49
102
{ACAD_REACTORS
330
B
102
}
330
B
100
AcDbDictionary
281
     1
  0
DICTIONARY
  5
36
102
{ACAD_REACTORS
330
B
102
}
330
B
100
AcDbDictionary
281
     1
  0
DICTIONARY
  5
18
102
{ACAD_REACTORS
330
B
102
}
330
B
100
AcDbDictionary
281
     1
  3
Layout1
350
1C
  3
Model
350
17
  0
DICTIONARY
  5
D
102
{ACAD_REACTORS
330
B
102
}
330
B
100
AcDbDictionary
281
     1
  3
ByBlock
350
41
  3
ByLayer
350
39
  3
Global
350
C
  0
DICTIONARY
  5
272
102
{ACAD_REACTORS
330
B
102
}
330
B
100
AcDbDictionary
281
     1
  3
Standard
350
273
  0
DICTIONARY
  5
37
102
{ACAD_REACTORS
330
B
102
}
330
B
100
AcDbDictionary
281
     1
  3
Standard
350
4F
  0
DICTIONARY
  5
38
102
{ACAD_REACTORS
330
B
102
}
330
B
100
AcDbDictionary
281
     1
  0
ACDBDICTIONARYWDFLT
  5
A
102
{ACAD_REACTORS
330
B
102
}
330
B
100
AcDbDictionary
281
     1
  3
Normal
350
9
100
AcDbDictionaryWithDefault
340
9
  0
DICTIONARY
  5
4A
102
{ACAD_REACTORS
330
B
102
}
330
B
100
AcDbDictionary
281
     1
  3
A0
350
54
  3
A1
350
55
  3
A2
350
56
  3
A3
350
57
  3
A4
350
58
  3
A5
350
59
  3
A6
350
5A
  3
A7
350
5B
  3
A8
350
5C
  3
A9
350
5D
  3
B0
350
5E
  3
B1
350
5F
  3
B2
350
60
  3
B3
350
61
  3
B4
350
62
  3
B5
350
63
  3
B6
350
64
  3
B7
350
65
  3
B8
350
66
  3
B9
350
67
  3
C0
350
68
  3
C1
350
69
  3
C2
350
6A
  3
C3
350
6B
  3
C4
350
6C
  3
C5
350
6D
  3
C6
350
6E
  3
C7
350
6F
  3
C8
350
70
  3
C9
350
71
  3
D0
350
72
  3
D1
350
73
  3
D2
350
74
  0
DICTIONARY
  5
4B
102
{ACAD_REACTORS
330
B
102
}
330
B
100
AcDbDictionary
281
     1
  3
Standard
350
50
  0
DICTIONARY
  5
30
102
{ACAD_REACTORS
330
B
102
}
330
B
100
AcDbDictionary
281
     1
  3
2dWireframe
350
2F
  3
3D Hidden
350
26A
  3
3dWireframe
350
53
  3
Basic
350
269
  3
Brighten
350
26D
  3
ColorChange
350
271
  3
Conceptual
350
26B
  3
Dim
350
26C
  3
Facepattern
350
270
  3
Flat
350
265
  3
FlatWithEdges
350
266
  3
Gouraud
350
267
  3
GouraudWithEdges
350
268
  3
Linepattern
350
26F
  3
Realistic
350
52
  3
Thicken
350
26E
  0
XRECORD
  5
25C
102
{ACAD_REACTORS
330
B
102
}
330
B
100
AcDbXrecord
280
     1
 90
        1
330
50
  0
DICTIONARY
  5
25D
102
{ACAD_REACTORS
330
B
102
}
330
B
100
AcDbDictionary
281
     1
  3
CANNOSCALE
350
260
  3
CMLEADERSTYLE
350
25F
  3
CTABLESTYLE
350
25E
  3
LAYEREVAL
350
262
  3
LAYERNOTIFY
350
263
  3
LIGHTINGUNITS
350
261
  3
MSLTSCALE
350
278
  0
DICTIONARY
  5
21
102
{ACAD_REACTORS
330
20
102
}
330
20
100
AcDbDictionary
281
     1
  0
DICTIONARY
  5
22
102
{ACAD_REACTORS
330
20
102
}
330
20
100
AcDbDictionary
281
     1
  0
DICTIONARY
  5
23
102
{ACAD_REACTORS
330
20
102
}
330
20
100
AcDbDictionary
281
     1
1001
ACAD
1000
<All
  0
XRECORD
  5
8
102
{ACAD_REACTORS
330
7
102
}
330
7
100
AcDbXrecord
280
     1
290
     1
  0
XRECORD
  5
94
102
{ACAD_REACTORS
330
93
102
}
330
93
100
AcDbXrecord
280
     1
290
     1
  0
SORTENTSTABLE
  5
259
102
{ACAD_REACTORS
330
3
102
}
330
3
100
AcDbSortentsTable
330
2
  0
LAYOUT
  5
1C
102
{ACAD_XDICTIONARY
360
1D
102
}
102
{ACAD_REACTORS
330
18
102
}
330
18
100
AcDbPlotSettings
  1

  2
\\Hermes\Canon Export
  4
A4
  6

 40
6.805083274841308
 41
5.619736671447753
 42
6.974411010742187
 43
5.027069091796875
 44
209.9733276367187
 45
296.9259948730469
 46
0.0
 47
0.0
 48
0.0
 49
0.0
140
0.0
141
0.0
142
1.0
143
1.408373058862776
 70
   688
 72
     1
 73
     1
 74
     1
  7
Ancon pen settings.ctb
 75
     0
147
0.710039143185168
 76
     1
 77
     2
 78
   300
148
0.0295434076670063
149
0.2562549577033906
100
AcDbLayout
  1
Layout1
 70
     0
 71
     1
 10
-7.10953208159549
 20
-9.840350905307564
 11
411.0730395736306
 21
285.880426818014
 12
0.0
 22
0.0
 32
0.0
 14
0.0
 24
-0.2551426056372079
 34
0.0
 15
402.2
 25
276.04
 35
0.0
146
0.0
 13
0.0
 23
0.0
 33
0.0
 16
1.0
 26
0.0
 36
0.0
 17
0.0
 27
1.0
 37
0.0
 76
     0
330
19
  0
LAYOUT
  5
17
102
{ACAD_REACTORS
330
18
102
}
330
18
100
AcDbPlotSettings
  1

  2
none_device
  4
Letter_(8.50_x_11.00_Inches)
  6

 40
6.349999904632568
 41
6.349999904632568
 42
6.350006103515625
 43
6.350006103515625
 44
215.8999938964844
 45
279.3999938964844
 46
0.0
 47
0.0
 48
0.0
 49
0.0
140
0.0
141
0.0
142
1.0
143
1.0
 70
 11952
 72
     0
 73
     1
 74
     0
  7
Ancon pen settings.ctb
 75
     0
147
1.0
 76
     0
 77
     2
 78
   300
148
-9123.298005735746
149
-1608.454362395838
100
AcDbLayout
  1
Model
 70
     1
 71
     0
 10
0.0
 20
0.0
 11
12.0
 21
9.0
 12
0.0
 22
0.0
 32
0.0
 14
0.0
 24
0.0
 34
0.0
 15
0.0
 25
0.0
 35
0.0
146
0.0
 13
0.0
 23
0.0
 33
0.0
 16
1.0
 26
0.0
 36
0.0
 17
0.0
 27
1.0
 37
0.0
 76
     0
330
2
331
2E
  0
MATERIAL
  5
41
102
{ACAD_XDICTIONARY
360
42
102
}
102
{ACAD_REACTORS
330
D
102
}
330
D
100
AcDbMaterial
  1
ByBlock
 72
     0
 43
0.0208333333333333
 43
0.0
 43
0.0
 43
0.0
 43
0.0
 43
0.0208333333333333
 43
0.0
 43
0.0
 43
0.0
 43
0.0
 43
1.0
 43
0.0
 43
0.0
 43
0.0
 43
0.0
 43
1.0
 77
     0
 47
0.0208333333333333
 47
0.0
 47
0.0
 47
0.0
 47
0.0
 47
0.0208333333333333
 47
0.0
 47
0.0
 47
0.0
 47
0.0
 47
1.0
 47
0.0
 47
0.0
 47
0.0
 47
0.0
 47
1.0
171
     0
 49
0.0208333333333333
 49
0.0
 49
0.0
 49
0.0
 49
0.0
 49
0.0208333333333333
 49
0.0
 49
0.0
 49
0.0
 49
0.0
 49
1.0
 49
0.0
 49
0.0
 49
0.0
 49
0.0
 49
1.0
175
     0
142
0.0208333333333333
142
0.0
142
0.0
142
0.0
142
0.0
142
0.0208333333333333
142
0.0
142
0.0
142
0.0
142
0.0
142
1.0
142
0.0
142
0.0
142
0.0
142
0.0
142
1.0
179
     0
144
0.0208333333333333
144
0.0
144
0.0
144
0.0
144
0.0
144
0.0208333333333333
144
0.0
144
0.0
144
0.0
144
0.0
144
1.0
144
0.0
144
0.0
144
0.0
144
0.0
144
1.0
147
0.0208333333333333
147
0.0
147
0.0
147
0.0
147
0.0
147
0.0208333333333333
147
0.0
147
0.0
147
0.0
147
0.0
147
1.0
147
0.0
147
0.0
147
0.0
147
0.0
147
1.0
  0
MATERIAL
  5
39
102
{ACAD_XDICTIONARY
360
3A
102
}
102
{ACAD_REACTORS
330
D
102
}
330
D
100
AcDbMaterial
  1
ByLayer
 72
     0
 43
0.0208333333333333
 43
0.0
 43
0.0
 43
0.0
 43
0.0
 43
0.0208333333333333
 43
0.0
 43
0.0
 43
0.0
 43
0.0
 43
1.0
 43
0.0
 43
0.0
 43
0.0
 43
0.0
 43
1.0
 77
     0
 47
0.0208333333333333
 47
0.0
 47
0.0
 47
0.0
 47
0.0
 47
0.0208333333333333
 47
0.0
 47
0.0
 47
0.0
 47
0.0
 47
1.0
 47
0.0
 47
0.0
 47
0.0
 47
0.0
 47
1.0
171
     0
 49
0.0208333333333333
 49
0.0
 49
0.0
 49
0.0
 49
0.0
 49
0.0208333333333333
 49
0.0
 49
0.0
 49
0.0
 49
0.0
 49
1.0
 49
0.0
 49
0.0
 49
0.0
 49
0.0
 49
1.0
175
     0
142
0.0208333333333333
142
0.0
142
0.0
142
0.0
142
0.0
142
0.0208333333333333
142
0.0
142
0.0
142
0.0
142
0.0
142
1.0
142
0.0
142
0.0
142
0.0
142
0.0
142
1.0
179
     0
144
0.0208333333333333
144
0.0
144
0.0
144
0.0
144
0.0
144
0.0208333333333333
144
0.0
144
0.0
144
0.0
144
0.0
144
1.0
144
0.0
144
0.0
144
0.0
144
0.0
144
1.0
147
0.0208333333333333
147
0.0
147
0.0
147
0.0
147
0.0
147
0.0208333333333333
147
0.0
147
0.0
147
0.0
147
0.0
147
1.0
147
0.0
147
0.0
147
0.0
147
0.0
147
1.0
  0
MATERIAL
  5
C
102
{ACAD_XDICTIONARY
360
E
102
}
102
{ACAD_REACTORS
330
D
102
}
330
D
100
AcDbMaterial
  1
Global
 72
     0
 43
0.0208333333333333
 43
0.0
 43
0.0
 43
0.0
 43
0.0
 43
0.0208333333333333
 43
0.0
 43
0.0
 43
0.0
 43
0.0
 43
1.0
 43
0.0
 43
0.0
 43
0.0
 43
0.0
 43
1.0
 77
     0
 47
0.0208333333333333
 47
0.0
 47
0.0
 47
0.0
 47
0.0
 47
0.0208333333333333
 47
0.0
 47
0.0
 47
0.0
 47
0.0
 47
1.0
 47
0.0
 47
0.0
 47
0.0
 47
0.0
 47
1.0
171
     0
 49
0.0208333333333333
 49
0.0
 49
0.0
 49
0.0
 49
0.0
 49
0.0208333333333333
 49
0.0
 49
0.0
 49
0.0
 49
0.0
 49
1.0
 49
0.0
 49
0.0
 49
0.0
 49
0.0
 49
1.0
175
     0
142
0.0208333333333333
142
0.0
142
0.0
142
0.0
142
0.0
142
0.0208333333333333
142
0.0
142
0.0
142
0.0
142
0.0
142
1.0
142
0.0
142
0.0
142
0.0
142
0.0
142
1.0
179
     0
144
0.0208333333333333
144
0.0
144
0.0
144
0.0
144
0.0
144
0.0208333333333333
144
0.0
144
0.0
144
0.0
144
0.0
144
1.0
144
0.0
144
0.0
144
0.0
144
0.0
144
1.0
147
0.0208333333333333
147
0.0
147
0.0
147
0.0
147
0.0
147
0.0208333333333333
147
0.0
147
0.0
147
0.0
147
0.0
147
1.0
147
0.0
147
0.0
147
0.0
147
0.0
147
1.0
  0
MLEADERSTYLE
  5
273
102
{ACAD_REACTORS
330
272
102
}
330
272
100
AcDbMLeaderStyle
170
     2
171
     1
172
     0
 90
        2
 40
0.0
 41
0.0
173
     1
 91
-1056964608
340
29
 92
       -2
290
     1
 42
0.09
291
     1
 43
0.36
  3
Standard
 44
0.18
300

342
26
174
     1
178
     6
175
     1
176
     0
 93
-1056964608
 45
0.18
292
     0
297
     0
 46
0.18
 94
-1056964608
 47
1.0
 49
1.0
140
1.0
293
     1
141
0.0
294
     1
177
     0
142
1.0
295
     0
296
     0
143
0.125
1001
ACAD_MLEADERVER
1070
     2
  0
MLINESTYLE
  5
4F
102
{ACAD_REACTORS
330
37
102
}
330
37
100
AcDbMlineStyle
  2
STANDARD
 70
     0
  3

 62
   256
 51
90.0
 52
90.0
 71
     2
 49
0.5
 62
   256
  6
BYLAYER
 49
-0.5
 62
   256
  6
BYLAYER
  0
ACDBPLACEHOLDER
  5
9
102
{ACAD_REACTORS
330
A
102
}
330
A
  0
SCALE
  5
54
102
{ACAD_REACTORS
330
4A
102
}
330
4A
100
AcDbScale
 70
     0
300
1:1
140
1.0
141
1.0
290
     1
  0
SCALE
  5
55
102
{ACAD_REACTORS
330
4A
102
}
330
4A
100
AcDbScale
 70
     0
300
1:2
140
1.0
141
2.0
290
     0
  0
SCALE
  5
56
102
{ACAD_REACTORS
330
4A
102
}
330
4A
100
AcDbScale
 70
     0
300
1:4
140
1.0
141
4.0
290
     0
  0
SCALE
  5
57
102
{ACAD_REACTORS
330
4A
102
}
330
4A
100
AcDbScale
 70
     0
300
1:5
140
1.0
141
5.0
290
     0
  0
SCALE
  5
58
102
{ACAD_REACTORS
330
4A
102
}
330
4A
100
AcDbScale
 70
     0
300
1:8
140
1.0
141
8.0
290
     0
  0
SCALE
  5
59
102
{ACAD_REACTORS
330
4A
102
}
330
4A
100
AcDbScale
 70
     0
300
1:10
140
1.0
141
10.0
290
     0
  0
SCALE
  5
5A
102
{ACAD_REACTORS
330
4A
102
}
330
4A
100
AcDbScale
 70
     0
300
1:16
140
1.0
141
16.0
290
     0
  0
SCALE
  5
5B
102
{ACAD_REACTORS
330
4A
102
}
330
4A
100
AcDbScale
 70
     0
300
1:20
140
1.0
141
20.0
290
     0
  0
SCALE
  5
5C
102
{ACAD_REACTORS
330
4A
102
}
330
4A
100
AcDbScale
 70
     0
300
1:30
140
1.0
141
30.0
290
     0
  0
SCALE
  5
5D
102
{ACAD_REACTORS
330
4A
102
}
330
4A
100
AcDbScale
 70
     0
300
1:40
140
1.0
141
40.0
290
     0
  0
SCALE
  5
5E
102
{ACAD_REACTORS
330
4A
102
}
330
4A
100
AcDbScale
 70
     0
300
1:50
140
1.0
141
50.0
290
     0
  0
SCALE
  5
5F
102
{ACAD_REACTORS
330
4A
102
}
330
4A
100
AcDbScale
 70
     0
300
1:100
140
1.0
141
100.0
290
     0
  0
SCALE
  5
60
102
{ACAD_REACTORS
330
4A
102
}
330
4A
100
AcDbScale
 70
     0
300
2:1
140
2.0
141
1.0
290
     0
  0
SCALE
  5
61
102
{ACAD_REACTORS
330
4A
102
}
330
4A
100
AcDbScale
 70
     0
300
4:1
140
4.0
141
1.0
290
     0
  0
SCALE
  5
62
102
{ACAD_REACTORS
330
4A
102
}
330
4A
100
AcDbScale
 70
     0
300
8:1
140
8.0
141
1.0
290
     0
  0
SCALE
  5
63
102
{ACAD_REACTORS
330
4A
102
}
330
4A
100
AcDbScale
 70
     0
300
10:1
140
10.0
141
1.0
290
     0
  0
SCALE
  5
64
102
{ACAD_REACTORS
330
4A
102
}
330
4A
100
AcDbScale
 70
     0
300
100:1
140
100.0
141
1.0
290
     0
  0
SCALE
  5
65
102
{ACAD_REACTORS
330
4A
102
}
330
4A
100
AcDbScale
 70
     0
300
1/128" = 1'-0"
140
0.0078125
141
12.0
290
     0
  0
SCALE
  5
66
102
{ACAD_REACTORS
330
4A
102
}
330
4A
100
AcDbScale
 70
     0
300
1/64" = 1'-0"
140
0.015625
141
12.0
290
     0
  0
SCALE
  5
67
102
{ACAD_REACTORS
330
4A
102
}
330
4A
100
AcDbScale
 70
     0
300
1/32" = 1'-0"
140
0.03125
141
12.0
290
     0
  0
SCALE
  5
68
102
{ACAD_REACTORS
330
4A
102
}
330
4A
100
AcDbScale
 70
     0
300
1/16" = 1'-0"
140
0.0625
141
12.0
290
     0
  0
SCALE
  5
69
102
{ACAD_REACTORS
330
4A
102
}
330
4A
100
AcDbScale
 70
     0
300
3/32" = 1'-0"
140
0.09375
141
12.0
290
     0
  0
SCALE
  5
6A
102
{ACAD_REACTORS
330
4A
102
}
330
4A
100
AcDbScale
 70
     0
300
1/8" = 1'-0"
140
0.125
141
12.0
290
     0
  0
SCALE
  5
6B
102
{ACAD_REACTORS
330
4A
102
}
330
4A
100
AcDbScale
 70
     0
300
3/16" = 1'-0"
140
0.1875
141
12.0
290
     0
  0
SCALE
  5
6C
102
{ACAD_REACTORS
330
4A
102
}
330
4A
100
AcDbScale
 70
     0
300
1/4" = 1'-0"
140
0.25
141
12.0
290
     0
  0
SCALE
  5
6D
102
{ACAD_REACTORS
330
4A
102
}
330
4A
100
AcDbScale
 70
     0
300
3/8" = 1'-0"
140
0.375
141
12.0
290
     0
  0
SCALE
  5
6E
102
{ACAD_REACTORS
330
4A
102
}
330
4A
100
AcDbScale
 70
     0
300
1/2" = 1'-0"
140
0.5
141
12.0
290
     0
  0
SCALE
  5
6F
102
{ACAD_REACTORS
330
4A
102
}
330
4A
100
AcDbScale
 70
     0
300
3/4" = 1'-0"
140
0.75
141
12.0
290
     0
  0
SCALE
  5
70
102
{ACAD_REACTORS
330
4A
102
}
330
4A
100
AcDbScale
 70
     0
300
1" = 1'-0"
140
1.0
141
12.0
290
     0
  0
SCALE
  5
71
102
{ACAD_REACTORS
330
4A
102
}
330
4A
100
AcDbScale
 70
     0
300
1-1/2" = 1'-0"
140
1.5
141
12.0
290
     0
  0
SCALE
  5
72
102
{ACAD_REACTORS
330
4A
102
}
330
4A
100
AcDbScale
 70
     0
300
3" = 1'-0"
140
3.0
141
12.0
290
     0
  0
SCALE
  5
73
102
{ACAD_REACTORS
330
4A
102
}
330
4A
100
AcDbScale
 70
     0
300
6" = 1'-0"
140
6.0
141
12.0
290
     0
  0
SCALE
  5
74
102
{ACAD_REACTORS
330
4A
102
}
330
4A
100
AcDbScale
 70
     0
300
1'-0" = 1'-0"
140
12.0
141
12.0
290
     0
  0
TABLESTYLE
  5
50
102
{ACAD_XDICTIONARY
360
51
102
}
102
{ACAD_REACTORS
330
4B
102
}
330
4B
100
AcDbTableStyle
  3
Standard
 70
     0
 71
     0
 40
0.06
 41
0.06
280
     0
281
     0
  7
STANDARD
140
0.18
170
     2
 62
     0
 63
     7
283
     0
274
    -2
284
     1
 64
     0
275
    -2
285
     1
 65
     0
276
    -2
286
     1
 66
     0
277
    -2
287
     1
 67
     0
278
    -2
288
     1
 68
     0
279
    -2
289
     1
 69
     0
  7
STANDARD
140
0.25
170
     5
 62
     0
 63
     7
283
     0
274
    -2
284
     1
 64
     0
275
    -2
285
     1
 65
     0
276
    -2
286
     1
 66
     0
277
    -2
287
     1
 67
     0
278
    -2
288
     1
 68
     0
279
    -2
289
     1
 69
     0
  7
STANDARD
140
0.18
170
     5
 62
     0
 63
     7
283
     0
274
    -2
284
     1
 64
     0
275
    -2
285
     1
 65
     0
276
    -2
286
     1
 66
     0
277
    -2
287
     1
 67
     0
278
    -2
288
     1
 68
     0
279
    -2
289
     1
 69
     0
  0
VISUALSTYLE
  5
2F
102
{ACAD_REACTORS
330
30
102
}
330
30
100
AcDbVisualStyle
  2
2dWireframe
 70
     4
 71
     0
 72
     2
 73
     0
 90
        0
 40
-0.6
 41
-30.0
 62
     5
 63
     7
 74
     1
 91
        4
 64
     7
 65
   257
 75
     1
175
     1
 42
1.0
 92
        0
 66
   257
 43
1.0
 76
     1
 77
     6
 78
     2
 67
     7
 79
     5
170
     0
171
     0
290
     0
174
     0
 93
        1
 44
0.0
173
     0
291
     0
 45
0.0
1001
ACAD
1000
AcDbSavedByObjectVersion
1070
     0
  0
VISUALSTYLE
  5
26A
102
{ACAD_REACTORS
330
30
102
}
330
30
100
AcDbVisualStyle
  2
3D Hidden
 70
     6
 71
     1
 72
     2
 73
     2
 90
        0
 40
-0.6
 41
-30.0
 62
     5
 63
     7
421
 16777215
 74
     2
 91
        2
 64
     7
 65
   257
 75
     2
175
     1
 42
40.0
 92
        0
 66
   257
 43
1.0
 76
     1
 77
     6
 78
     2
 67
     7
 79
     3
170
     0
171
     0
290
     0
174
     0
 93
        1
 44
0.0
173
     0
291
     0
 45
0.0
1001
ACAD
1000
AcDbSavedByObjectVersion
1070
     0
  0
VISUALSTYLE
  5
53
102
{ACAD_REACTORS
330
30
102
}
330
30
100
AcDbVisualStyle
  2
3dWireframe
 70
     5
 71
     0
 72
     2
 73
     0
 90
        0
 40
-0.6
 41
-30.0
 62
     5
 63
     7
 74
     1
 91
        4
 64
     7
 65
   257
 75
     1
175
     1
 42
1.0
 92
        0
 66
   257
 43
1.0
 76
     1
 77
     6
 78
     2
 67
     7
 79
     5
170
     0
171
     0
290
     0
174
     0
 93
        1
 44
0.0
173
     0
291
     0
 45
0.0
1001
ACAD
1000
AcDbSavedByObjectVersion
1070
     0
  0
VISUALSTYLE
  5
269
102
{ACAD_REACTORS
330
30
102
}
330
30
100
AcDbVisualStyle
  2
Basic
 70
     7
 71
     1
 72
     0
 73
     1
 90
        0
 40
-0.6
 41
-30.0
 62
     5
 63
     7
421
 16777215
 74
     0
 91
        4
 64
     7
 65
   257
 75
     1
175
     1
 42
1.0
 92
        8
 66
     7
 43
1.0
 76
     1
 77
     6
 78
     2
 67
     7
 79
     5
170
     0
171
     0
290
     0
174
     0
 93
        1
 44
0.0
173
     0
291
     1
 45
0.0
1001
ACAD
1000
AcDbSavedByObjectVersion
1070
     0
  0
VISUALSTYLE
  5
26D
102
{ACAD_REACTORS
330
30
102
}
330
30
100
AcDbVisualStyle
  2
Brighten
 70
    12
 71
     2
 72
     2
 73
     0
 90
        0
 40
-0.6
 41
-30.0
 62
     5
 63
     7
421
 16777215
 74
     1
 91
        4
 64
     7
 65
   257
 75
     1
175
     1
 42
1.0
 92
        8
 66
     7
 43
1.0
 76
     1
 77
     6
 78
     2
 67
     7
 79
     5
170
     0
171
     0
290
     0
174
     0
 93
        1
 44
50.0
173
     0
291
     1
 45
0.0
1001
ACAD
1000
AcDbSavedByObjectVersion
1070
     0
  0
VISUALSTYLE
  5
271
102
{ACAD_REACTORS
330
30
102
}
330
30
100
AcDbVisualStyle
  2
ColorChange
 70
    16
 71
     2
 72
     2
 73
     3
 90
        0
 40
-0.6
 41
-30.0
 62
     5
 63
     8
421
  8421504
 74
     1
 91
        4
 64
     7
 65
   257
 75
     1
175
     1
 42
1.0
 92
        8
 66
     8
424
  8421504
 43
1.0
 76
     1
 77
     6
 78
     2
 67
     7
 79
     5
170
     0
171
     0
290
     0
174
     0
 93
        1
 44
0.0
173
     0
291
     1
 45
0.0
1001
ACAD
1000
AcDbSavedByObjectVersion
1070
     0
  0
VISUALSTYLE
  5
26B
102
{ACAD_REACTORS
330
30
102
}
330
30
100
AcDbVisualStyle
  2
Conceptual
 70
     9
 71
     3
 72
     2
 73
     0
 90
        0
 40
-0.6
 41
-30.0
 62
     5
 63
     7
421
 16777215
 74
     2
 91
        2
 64
     7
 65
   257
 75
     1
175
     1
 42
40.0
 92
        8
 66
     7
 43
1.0
 76
     1
 77
     6
 78
     2
 67
     7
 79
     3
170
     0
171
     0
290
     0
174
     0
 93
        1
 44
0.0
173
     0
291
     0
 45
0.0
1001
ACAD
1000
AcDbSavedByObjectVersion
1070
     0
  0
VISUALSTYLE
  5
26C
102
{ACAD_REACTORS
330
30
102
}
330
30
100
AcDbVisualStyle
  2
Dim
 70
    11
 71
     2
 72
     2
 73
     0
 90
        0
 40
-0.6
 41
-30.0
 62
     5
 63
     7
421
 16777215
 74
     1
 91
        4
 64
     7
 65
   257
 75
     1
175
     1
 42
1.0
 92
        8
 66
     7
 43
1.0
 76
     1
 77
     6
 78
     2
 67
     7
 79
     5
170
     0
171
     0
290
     0
174
     0
 93
        1
 44
-50.0
173
     0
291
     1
 45
0.0
1001
ACAD
1000
AcDbSavedByObjectVersion
1070
     0
  0
VISUALSTYLE
  5
270
102
{ACAD_REACTORS
330
30
102
}
330
30
100
AcDbVisualStyle
  2
Facepattern
 70
    15
 71
     2
 72
     2
 73
     0
 90
        0
 40
-0.6
 41
-30.0
 62
     5
 63
     7
421
 16777215
 74
     1
 91
        4
 64
     7
 65
   257
 75
     1
175
     1
 42
1.0
 92
        8
 66
     7
 43
1.0
 76
     1
 77
     6
 78
     2
 67
     7
 79
     5
170
     0
171
     0
290
     0
174
     0
 93
        1
 44
0.0
173
     0
291
     1
 45
0.0
1001
ACAD
1000
AcDbSavedByObjectVersion
1070
     0
  0
VISUALSTYLE
  5
265
102
{ACAD_REACTORS
330
30
102
}
330
30
100
AcDbVisualStyle
  2
Flat
 70
     0
 71
     2
 72
     1
 73
     1
 90
        2
 40
-0.6
 41
30.0
 62
     5
 63
     7
421
 16777215
 74
     0
 91
        4
 64
     7
 65
   257
 75
     1
175
     1
 42
1.0
 92
        8
 66
     7
 43
1.0
 76
     1
 77
     6
 78
     2
 67
     7
 79
     5
170
     0
171
     0
290
     0
174
     0
 93
       13
 44
0.0
173
     0
291
     1
 45
0.0
1001
ACAD
1000
AcDbSavedByObjectVersion
1070
     0
  0
VISUALSTYLE
  5
266
102
{ACAD_REACTORS
330
30
102
}
330
30
100
AcDbVisualStyle
  2
FlatWithEdges
 70
     1
 71
     2
 72
     1
 73
     1
 90
        2
 40
-0.6
 41
30.0
 62
     5
 63
     7
421
 16777215
 74
     1
 91
        4
 64
     7
 65
   257
 75
     1
175
     1
 42
1.0
 92
        0
 66
   257
 43
1.0
 76
     1
 77
     6
 78
     2
 67
     7
 79
     5
170
     0
171
     0
290
     0
174
     0
 93
       13
 44
0.0
173
     0
291
     1
 45
0.0
1001
ACAD
1000
AcDbSavedByObjectVersion
1070
     0
  0
VISUALSTYLE
  5
267
102
{ACAD_REACTORS
330
30
102
}
330
30
100
AcDbVisualStyle
  2
Gouraud
 70
     2
 71
     2
 72
     2
 73
     1
 90
        2
 40
-0.6
 41
30.0
 62
     5
 63
     7
421
 16777215
 74
     0
 91
        4
 64
     7
 65
   257
 75
     1
175
     1
 42
1.0
 92
        0
 66
     7
 43
1.0
 76
     1
 77
     6
 78
     2
 67
     7
 79
     5
170
     0
171
     0
290
     0
174
     0
 93
       13
 44
0.0
173
     0
291
     1
 45
0.0
1001
ACAD
1000
AcDbSavedByObjectVersion
1070
     0
  0
VISUALSTYLE
  5
268
102
{ACAD_REACTORS
330
30
102
}
330
30
100
AcDbVisualStyle
  2
GouraudWithEdges
 70
     3
 71
     2
 72
     2
 73
     1
 90
        2
 40
-0.6
 41
30.0
 62
     5
 63
     7
421
 16777215
 74
     1
 91
        4
 64
     7
 65
   257
 75
     1
175
     1
 42
1.0
 92
        0
 66
   257
 43
1.0
 76
     1
 77
     6
 78
     2
 67
     7
 79
     5
170
     0
171
     0
290
     0
174
     0
 93
       13
 44
0.0
173
     0
291
     1
 45
0.0
1001
ACAD
1000
AcDbSavedByObjectVersion
1070
     0
  0
VISUALSTYLE
  5
26F
102
{ACAD_REACTORS
330
30
102
}
330
30
100
AcDbVisualStyle
  2
Linepattern
 70
    14
 71
     2
 72
     2
 73
     0
 90
        0
 40
-0.6
 41
-30.0
 62
     5
 63
     7
421
 16777215
 74
     1
 91
        4
 64
     7
 65
   257
 75
     7
175
     7
 42
1.0
 92
        8
 66
     7
 43
1.0
 76
     1
 77
     6
 78
     2
 67
     7
 79
     5
170
     0
171
     0
290
     0
174
     0
 93
        1
 44
0.0
173
     0
291
     1
 45
0.0
1001
ACAD
1000
AcDbSavedByObjectVersion
1070
     0
  0
VISUALSTYLE
  5
52
102
{ACAD_REACTORS
330
30
102
}
330
30
100
AcDbVisualStyle
  2
Realistic
 70
     8
 71
     2
 72
     2
 73
     0
 90
        0
 40
-0.6
 41
-30.0
 62
     5
 63
     7
 74
     1
 91
        0
 64
     7
 65
   257
 75
     1
175
     1
 42
1.0
 92
        8
 66
     8
 43
1.0
 76
     1
 77
     6
 78
     2
 67
     7
 79
     5
170
     0
171
     0
290
     0
174
     0
 93
       13
 44
0.0
173
     0
291
     0
 45
0.0
1001
ACAD
1000
AcDbSavedByObjectVersion
1070
     0
  0
VISUALSTYLE
  5
26E
102
{ACAD_REACTORS
330
30
102
}
330
30
100
AcDbVisualStyle
  2
Thicken
 70
    13
 71
     2
 72
     2
 73
     0
 90
        0
 40
-0.6
 41
-30.0
 62
     5
 63
     7
421
 16777215
 74
     1
 91
        4
 64
     7
 65
   257
 75
     1
175
     1
 42
1.0
 92
       12
 66
     7
 43
1.0
 76
     1
 77
     6
 78
     2
 67
     7
 79
     5
170
     0
171
     0
290
     0
174
     0
 93
        1
 44
0.0
173
     0
291
     1
 45
0.0
1001
ACAD
1000
AcDbSavedByObjectVersion
1070
     0
  0
DICTIONARYVAR
  5
260
102
{ACAD_REACTORS
330
25D
102
}
330
25D
100
DictionaryVariables
280
     0
  1
1:1
  0
DICTIONARYVAR
  5
25F
102
{ACAD_REACTORS
330
25D
102
}
330
25D
100
DictionaryVariables
280
     0
  1
STANDARD
  0
DICTIONARYVAR
  5
25E
102
{ACAD_REACTORS
330
25D
102
}
330
25D
100
DictionaryVariables
280
     0
  1
STANDARD
  0
DICTIONARYVAR
  5
262
102
{ACAD_REACTORS
330
25D
102
}
330
25D
100
DictionaryVariables
280
     0
  1
1
  0
DICTIONARYVAR
  5
263
102
{ACAD_REACTORS
330
25D
102
}
330
25D
100
DictionaryVariables
280
     0
  1
15
  0
DICTIONARYVAR
  5
261
102
{ACAD_REACTORS
330
25D
102
}
330
25D
100
DictionaryVariables
280
     0
  1
0
  0
DICTIONARYVAR
  5
278
102
{ACAD_REACTORS
330
25D
102
}
330
25D
100
DictionaryVariables
280
     0
  1
1
  0
DICTIONARY
  5
1D
330
1C
100
AcDbDictionary
280
     1
281
     1
  3
ADSK_XREC_LAYOUTTHUMBNAIL
360
1E
  0
DICTIONARY
  5
42
330
41
100
AcDbDictionary
280
     1
281
     1
  3
ACAD_XREC_ROUNDTRIP
360
27C
  3
BUMPTILE
360
43
  3
DIFFUSETILE
360
44
  3
OPACITYTILE
360
45
  3
REFLECTIONTILE
360
46
  3
REFRACTIONTILE
360
47
  3
SPECULARTILE
360
48
  0
DICTIONARY
  5
3A
330
39
100
AcDbDictionary
280
     1
281
     1
  3
ACAD_XREC_ROUNDTRIP
360
27B
  3
BUMPTILE
360
3B
  3
DIFFUSETILE
360
3C
  3
OPACITYTILE
360
3D
  3
REFLECTIONTILE
360
3E
  3
REFRACTIONTILE
360
3F
  3
SPECULARTILE
360
40
  0
DICTIONARY
  5
E
330
C
100
AcDbDictionary
280
     1
281
     1
  3
ACAD_XREC_ROUNDTRIP
360
27A
  3
BUMPTILE
360
F
  3
DIFFUSETILE
360
10
  3
OPACITYTILE
360
11
  3
REFLECTIONTILE
360
12
  3
REFRACTIONTILE
360
13
  3
SPECULARTILE
360
14
  0
DICTIONARY
  5
51
330
50
100
AcDbDictionary
280
     1
281
     1
  3
ACAD_ROUNDTRIP_2008_TABLESTYLE_CELLSTYLEMAP
360
279
  3
ACAD_XREC_ROUNDTRIP
360
27D
  0
XRECORD
  5
1E
102
{ACAD_REACTORS
330
1D
102
}
330
1D
100
AcDbXrecord
280
     1
310
28000000B40000007F00000001000800000000004C590000000000000000000000010000000000000000000000000000FFFFFF000000000000000000000000000000000000000000000000000000000000000000330000006600000099000000CC000000FF00000000330000333300006633000099330000CC330000FF3300
310
0000660000336600006666000099660000CC660000FF66000000990000339900006699000099990000CC990000FF99000000CC000033CC000066CC000099CC0000CCCC0000FFCC000000FF000033FF000066FF000099FF0000CCFF0000FFFF000000003300330033006600330099003300CC003300FF003300003333003333
310
33006633330099333300CC333300FF33330000663300336633006666330099663300CC663300FF66330000993300339933006699330099993300CC993300FF99330000CC330033CC330066CC330099CC3300CCCC3300FFCC330000FF330033FF330066FF330099FF3300CCFF3300FFFF330000006600330066006600660099
310
006600CC006600FF00660000336600333366006633660099336600CC336600FF33660000666600336666006666660099666600CC666600FF66660000996600339966006699660099996600CC996600FF99660000CC660033CC660066CC660099CC6600CCCC6600FFCC660000FF660033FF660066FF660099FF6600CCFF6600
310
FFFF660000009900330099006600990099009900CC009900FF00990000339900333399006633990099339900CC339900FF33990000669900336699006666990099669900CC669900FF66990000999900339999006699990099999900CC999900FF99990000CC990033CC990066CC990099CC9900CCCC9900FFCC990000FF99
310
0033FF990066FF990099FF9900CCFF9900FFFF99000000CC003300CC006600CC009900CC00CC00CC00FF00CC000033CC003333CC006633CC009933CC00CC33CC00FF33CC000066CC003366CC006666CC009966CC00CC66CC00FF66CC000099CC003399CC006699CC009999CC00CC99CC00FF99CC0000CCCC0033CCCC0066CC
310
CC0099CCCC00CCCCCC00FFCCCC0000FFCC0033FFCC0066FFCC0099FFCC00CCFFCC00FFFFCC000000FF003300FF006600FF009900FF00CC00FF00FF00FF000033FF003333FF006633FF009933FF00CC33FF00FF33FF000066FF003366FF006666FF009966FF00CC66FF00FF66FF000099FF003399FF006699FF009999FF00CC
310
99FF00FF99FF0000CCFF0033CCFF0066CCFF0099CCFF00CCCCFF00FFCCFF0000FFFF0033FFFF0066FFFF0099FFFF00CCFFFF00FFFFFF00000000000D0D0D001A1A1A00282828003535350043434300505050005D5D5D006B6B6B00787878008686860093939300A1A1A100AEAEAE00BBBBBB00C9C9C900D6D6D600E4E4E400
310
F1F1F100FFFFFF0000000000000000000000000000000000000000000000000000000000000000000000000000000000F5F5F5F5F5F5F5F5F5F5F5F5F5F5F5F5F5F5F5F5F5F5F5F5F5F5F5F5F5F5F5F5F5F5F5F5F5F5F5F5F5F5F5F5F5F5F5F5F5F5F5F5F5F5F5F5F5F5F5F5F5F5F5F5F5F5F5F5F5F5F5F5F5F5F5F5F5F5F5
310
F5F5F5F5F5F5F5F5F5F5F5F5F5F5F5F5F5F5F5F5F5F5F5F5F5F5F5F5F5F5F5F5F5F5F5F5F5F5F5F5F5F5F5F5F5F5F5F5F5F5F5F5F5F5F5F5F5F5F5F5F5F5F5F5F5F5F5F5F5F5F5F5F5F5F5F5F5F5F5F5F5F5F5F5F5F5F5F5F5F5F5F5F5F5F5F5F5F5F5F5EFF5E2E2E2E2E2E2E2E2E2E2E2E2E2E2E2E2E2E2E2E2E2E2E2E2E2
310
E2E2E2E2E2E2E2E2E2E2E2E2E2E2E2E2E2E2E2E2E2E2E2E2E2E2E2E2E2E2E2E2E2E2E2E2E2E2E2E2E2E2E2E2E2E2E2E2E2E2E2E2E2E2E2E2E2E2E2E2E2E2E2E2E2E2E2E2E2E2E2E2E2E2E2E2E2E2E2E2E2E2E2E2E2E2E2E2E2E2E2E2E2E2E2E2E2E2E2E2E2E2E2E2E2E2E2E2E2E2E2E2E2E2E2E2E2E2E2E2E2E2E2E2E2E2E2
310
E2E2E2E2E2E2E2E2E2E2E2E2E2E2E2E2E2E2E2E2E2E2E2E2F5F5EFF5E2E2E2E2E2E2E2E2E2E2E2E2E2E2E2E2E2E2E2E2E2E2E2E2E2E2E2E2E2E2E2E2E2E2E2E2E2E2E2E2E2E2E2E2E2E2E2E2E2E2E2E2E2E2E2E2E2E2E2E2E2E2E2E2E2E2E2E2E2E2E2E2E2E2E2E2E2E2E2E2E2E2E2E2E2E2E2E2E2E2E2E2E2E2E2E2E2E2E2
310
E2E2E2E2E2E2E2E2E2E2E2E2E2E2E2E2E2E2E2E2E2E2E2E2E2E2E2E2E2E2E2E2E2E2E2E2E2E2E2E2E2E2E2E2E2E2E2E2E2E2E2E2E2E2E2E2E2E2E2E2E2E2E2E2E2E2E2E2E2E2E2E2E2E2E2E2E2F5F5EFF5E2E2E2E2E2E2E2E2E2E2E2E2E2E2E2E2E2E2E2E2E2E2E2E2E2E2E2E2E2E2E2E2E2E2E2E2E2E2E2E2E2E2E2E2E2E2
310
E2E2E2E2E2E2E2E2E2E2E2E2E2E2E2E2E2E2E2E2E2E2E2E2E2E2E2E2E2E2E2E2E2E2E2E2E2E2E2E2E2E2E2E2E2E2E2E2E2E2E2E2E2E2E2E2E2E2E2E2E2E2E2E2E2E2E2E2E2E2E2E2E2E2E2E2E2E2E2E2E2E2E2E2E2E2E2E2E2E2E2E2E2E2E2E2E2E2E2E2E2E2E2E2E2E2E2E2E2E2E2E2E2E2E2E2E2E2E2E2E2E2E2E2E2E2E2
310
E2E2E2F5F5EFF5E2E2F5F5F5F5F5F5F5F5E2E2E2E2E2E2E2E2E2F5F5F5F5F5F5F5F5F5F5F5F5F5F5F5F5E2E2E2E2E2E2E2E2E2F5F5F5F5F5F5F5F5F5F5F5F5F5F5F5E2E2E2E2E2E2E2E2E2F5F5F5F5F5F5F5F5F5F5F5F5F5F5F5F5E2E2E2E2E2E2E2E2F5F5F5F5F5F5F5F5F5F5F5F5F5F5F5F5E2E2E2E2E2E2E2E2E2F5F5F5
310
F5F5F5F5F5F5F5F5F5F5F5F5E2E2E2E2E2E2E2E2E2F5F5F5F5F5F5F5F5F5F5F5F5F5F5F5F5E2E2E2E2E2E2E2E2E2F5F5F5F5F5F5F5F5E2E2F5F5EFF5E2E2F5E2E2E2E2E2E2E2E2E2E2E2E2E2E2E2E2E2E2E2E2E2E2E2E2E2E2E2E2E2E2E2E2E2E2E2E2E2E2E2E2E2E2E2E2E2E2E2E2E2E2E2E2E2E2E2E2E2E2E2E2E2E2E2E2
310
E2E2E2E2E2E2E2E2E2E2E2E2E2E2E2E2E2E2E2E2E2E2E2E2E2E2E2E2E2E2E2E2E2E2E2E2E2E2E2E2E2E2E2E2E2E2E2E2E2E2E2E2E2E2E2E2E2E2E2E2E2E2E2E2E2E2E2E2E2E2E2E2E2E2E2E2E2E2E2E2E2E2E2E2E2E2E2E2E2E2E2E2E2E2E2E2E2E2E2E2E2E2E2E2E2E2F5E2E2F5F5EFF5E2E2F5E2E2E2E2E2E2E2E2E2E2E2
310
E2E2E2E2E2E2E2E2E2E2E2E2E2E2E2E2E2E2E2E2E2E2E2E2E2E2E2E2E2E2E2E2E2E2E2E2E2E2E2E2E2E2E2E2E2E2E2E2E2E2E2E2E2E2E2E2E2E2E2E2E2E2E2E2E2E2E2E2E2E2E2E2E2E2E2E2E2E2E2E2E2E2E2E2E2E2E2E2E2E2E2E2E2E2E2E2E2E2E2E2E2E2E2E2E2E2E2E2E2E2E2E2E2E2E2E2E2E2E2E2E2E2E2E2E2E2E2
310
E2E2E2E2E2E2E2E2E2E2E2E2E2E2E2E2E2E2E2E2E2E2E2E2E2E2E2E2E2E2E2E2F5E2E2F5F5EFF5E2E2F5E2E2E2E2E2E2E2E2E2E2E2E2E2E2E2E2E2E2E2E2E2E2E2E2E2E2E2E2E2E2E2E2E2E2E2E2E2E2E2E2E2E2E2E2E2E2E2E2E2E2E2E2E2E2E2E2E2E2E2E2E2E2E2E2E2E2E2E2E2E2E2E2E2E2E2E2E2E2E2E2E2E2E2E2E2
310
E2E2E2E2E2E2E2E2E2E2E2E2E2E2E2E2E2E2E2E2E2E2E2E2E2E2E2E2E2E2E2E2E2E2E2E2E2E2E2E2E2E2E2E2E2E2E2E2E2E2E2E2E2E2E2E2E2E2E2E2E2E2E2E2E2E2E2E2E2E2E2E2E2E2E2E2E2E2E2E2E2E2E2E2E2F5E2E2F5F5EFF5E2E2F5E2E2E2E2E2E2E2E2E2E2E2E2E2E2E2E2E2E2E2E2E2E2E2E2E2E2E2E2E2E2E2E2
310
E2E2E2E2E2E2E2E2E2E2E2E2E2E2E2E2E2E2E2E2E2E2E2E2E2E2E2E2E2E2E2E2E2E2E2E2E2E2E2E2E2E2E2E2E2E2E2E2E2E2E2E2E2E2E2E2E2E2E2E2E2E2E2E2E2E2E2E2E2E2E2E2E2E2E2E2E2E2E2E2E2E2E2E2E2E2E2E2E2E2E2E2E2E2E2E2E2E2E2E2E2E2E2E2E2E2E2E2E2E2E2E2E2E2E2E2E2E2E2E2E2E2E2E2E2E2E2
310
E2E2E2E2E2E2E2E2E2E2E2F5E2E2F5F5EFF5E2E2F5E2E2E2E2E2E2E2E2E2E2E2E2E2E2E2E2E2E2E2E2E2E2E2E2E2E2E2E2E2E2E2E2E2E2E2E2E2E2E2E2E2E2E2E2E2E2E2E2E2E2E2E2E2E2E2E2E2E2E2E2E2E2E2E2E2E2E2E2E2E2E2E2E2E2E2E2E2E2E2E2E2E2E2E2E2E2E2E2E2E2E2E2E2E2E2E2E2E2E2E2E2E2E2E2E2E2
310
E2E2E2E2E2E2E2E2E2E2E2E2E2E2E2E2E2E2E2E2E2E2E2E2E2E2E2E2E2E2E2E2E2E2E2E2E2E2E2E2E2E2E2E2E2E2E2E2E2E2E2E2E2E2E2E2E2E2E2E2E2E2E2E2F5E2E2F5F5EFF5E2E2F5E2E2E2E2E2E2E2E2E2E2E2E2E2E2E2E2E2E2E2E2E2E2E2E2E2E2E2E2E2E2E2E2E2E2E2E2E2E2E2E2E2E2E2E2E2E2E2E2E2E2E2E2E2
310
E2E2E2E2E2E2E2E2E2E2E2E2E2E2E2E2E2E2E2E2E2E2E2E2E2E2E2E2E2E2E2E2E2E2E2E2E2E2E2E2E2E2E2E2E2E2E2E2E2E2E2E2E2E2E2E2E2E2E2E2E2E2E2E2E2E2E2E2E2E2E2E2E2E2E2E2E2E2E2E2E2E2E2E2E2E2E2E2E2E2E2E2E2E2E2E2E2E2E2E2E2E2E2E2E2E2E2E2E2E2E2E2E2E2E2E2E2F5E2E2F5F5EFF5E2E2F5
310
E2E2E2E2E2E2E2E2E2E2E2E2E2E2E2E2E2E2E2E2E2E2E2E2E2E2E2E2E2E2E2E2E2E2E2E2E2E2E2E2E2E2E2E2E2E2E2E2E2E2E2E2E2E2E2E2E2E2E2E2E2E2E2E2E2E2E2E2E2E2E2E2E2E2E2E2E2E2E2E2E2E2E2E2E2E2E2E2E2E2E2E2E2E2E2E2E2E2E2E2E2E2E2E2E2E2E2E2E2E2E2E2E2E2E2E2E2E2E2E2E2E2E2E2E2E2E2
310
E2E2E2E2E2E2E2E2E2E2E2E2E2E2E2E2E2E2E2E2E2E2E2E2E2E2E2E2E2E2E2E2E2E2E2E2E2E2E2E2E2E2E2F5E2E2F5F5EFF5E2E2E2E2E2E2E2E2E2E2E2E2E2E2E2E2E2E2E2E2E2E2E2E2E2E2E2E2E2E2E2E2E2E2E2E2E2E2E2E2E2E2E2E2E2E2E2E2E2E2E2E2E2E2E2E2E2E2E2E2E2E2E2E2E2E2E2E2E2E2E2E2E2E2E2E2E2
310
E2E2E2E2E2E2E2E2E2E2E2E2E2E2E2E2E2E2E2E2E2E2E2E2E2E2E2E2E2E2E2E2E2E2E2E2E2E2E2E2E2E2E2E2E2E2E2E2E2E2E2E2E2E2E2E2E2E2E2E2E2E2E2E2E2E2E2E2E2E2E2E2E2E2E2E2E2E2E2E2E2E2E2E2E2E2E2E2E2E2E2E2E2E2E2E2E2E2E2F5F5EFF5E2E2E2E2E2E2E2E2E2E2E2E2E2E2E2E2E2E2E2E2E2E2E2E2
310
E2E2E2E2E2E2E2E2E2E2E2E2E2E2E2E2E2E2E2E2E2E2E2E2E2E2E2E2E2E2E2E2E2E2E2E2E2E2E2E2E2E2E2E2E2E2E2E2E2E2E2E2E2E2E2E2E2E2E2E2E2E2E2E2E2E2E2E2E2E2E2E2E2E2E2E2E2E2E2E2E2E2E2E2E2E2E2E2E2E2E2E2E2E2E2E2E2E2E2E2E2E2E2E2E2E2E2E2E2E2E2E2E2E2E2E2E2E2E2E2E2E2E2E2E2E2E2
310
E2E2E2E2E2E2E2E2E2E2E2E2E2E2E2E2E2E2E2E2E2E2E2E2E2F5F5EFF5E2E2E2E2E2E2E2E2E2E2E2E2E2E2E2E2E2E2E2E2E2E2E2E2E2E2E2E2E2E2E2E2E2E2E2E2E2E2E2E2E2E2E2E2E2E2E2E2E2E2E2E2E2E2E2E2E2E2E2E2E2E2E2E2E2E2E2E2E2E2E2E2E2E2E2E2E2E2E2E2E2E2E2E2E2E2E2E2E2E2E2E2E2E2E2E2E2E2
310
E2E2E2E2E2E2E2E2E2E2E2E2E2E2E2E2E2E2E2E2E2E2E2E2E2E2E2E2E2E2E2E2E2E2E2E2E2E2E2E2E2E2E2E2E2E2E2E2E2E2E2E2E2E2E2E2E2E2E2E2E2E2E2E2E2E2E2E2E2E2E2E2E2E2E2E2E2E2F5F5EFF5E2E2E2E2E2E2E2E2E2E2E2E2E2E2E2E2E2E2E2E2E2E2E2E2E2E2E2E2E2E2E2E2E2E2E2E2E2E2E2E2E2E2E2E2E2
310
E2E2E2E2E2E2E2E2E2E2E2E2E2E2E2E2E2E2E2E2E2E2E2E2E2E2E2E2E2E2E2E2E2E2E2E2E2E2E2E2E2E2E2E2E2E2E2E2E2E2E2E2E2E2E2E2E2E2E2E2E2E2E2E2E2E2E2E2E2E2E2E2E2E2E2E2E2E2E2E2E2E2E2E2E2E2E2E2E2E2E2E2E2E2E2E2E2E2E2E2E2E2E2E2E2E2E2E2E2E2E2E2E2E2E2E2E2E2E2E2E2E2E2E2E2E2E2
310
E2E2E2E2F5F5EFF5E2E2E2E2E2E2E2E2E2E2E2E2E2E2E2E2E2E2E2E2E2E2E2E2E2E2E2E2E2E2E2E2E2E2E2E2E2E2E2E2E2E2E2E2E2E2E2E2E2E2E2E2E2E2E2E2E2E2E2E2E2E2E2E2E2E2E2E2E2E2E2E2E2E2E2E2E2E2E2E2E2E2E2E2E2E2E2E2E2E2E2E2E2E2E2E2E2E2E2E2E2E2E2E2E2E2E2E2E2E2E2E2E2E2E2E2E2E2E2
310
E2E2E2E2E2E2E2E2E2E2E2E2E2E2E2E2E2E2E2E2E2E2E2E2E2E2E2E2E2E2E2E2E2E2E2E2E2E2E2E2E2E2E2E2E2E2E2E2E2E2E2E2E2E2E2E2E2F5F5EFF5E2E2E2E2E2E2E2E2E2E2E2E2E2E2E2E2E2E2E2E2E2E2E2E2E2E2E2E2E2E2E2E2E2E2E2E2E2E2E2E2E2E2E2E2E2E2E2E2E2E2E2E2E2E2E2E2E2E2E2E2E2E2E2E2E2E2
310
E2E2E2E2E2E2E2E2E2E2E2E2E2E2E2E2E2E2E2E2E2E2E2E2E2E2E2E2E2E2E2E2E2E2E2E2E2E2E2E2E2E2E2E2E2E2E2E2E2E2E2E2E2E2E2E2E2E2E2E2E2E2E2E2E2E2E2E2E2E2E2E2E2E2E2E2E2E2E2E2E2E2E2E2E2E2E2E2E2E2E2E2E2E2E2E2E2E2E2E2E2E2E2E2E2E2E2E2E2E2F5F5EFF5E2E2E2E2E2E2E2E2E2E2E2E2E2
310
E2E2E2E2E2E2E2E2E2E2E2E2E2E2E2E2E2E2E2E2E2E2E2E2E2E2E2E2E2E2E2E2E2E2E2E2E2E2E2E2E2E2E2E2E2E2E2E2E2E2E2E2E2E2E2E2E2E2E2E2E2E2E2E2E2E2E2E2E2E2E2E2E2E2E2E2E2E2E2E2E2E2E2E2E2E2E2E2E2E2E2E2E2E2E2E2E2E2E2E2E2E2E2E2E2E2E2E2E2E2E2E2E2E2E2E2E2E2E2E2E2E2E2E2E2E2E2
310
E2E2E2E2E2E2E2E2E2E2E2E2E2E2E2E2E2E2E2E2E2E2E2E2E2E2E2E2E2E2E2E2E2E2E2E2F5F5EFF5E2E2E2E2E2E2E2E2E2E2E2E2E2E2E2E2E2E2E2E2E2E2E2E2E2E2E2E2E2E2E2E2E2E2E2E2E2E2E2E2E2E2E2E2E2E2E2E2E2E2E2E2E2E2E2E2E2E2E2E2E2E2E2E2E2E2E2E2E2E2E2E2E2E2E2E2E2E2E2E2E2E2E2E2E2E2E2
310
E2E2E2E2E2E2E2E2E2E2E2E2E2E2E2E2E2E2E2E2E2E2E2E2E2E2E2E2E2E2E2E2E2E2E2E2E2E2E2E2E2E2E2E2E2E2E2E2E2E2E2E2E2E2E2E2E2E2E2E2E2E2E2E2E2E2E2E2E2E2E2E2E2E2E2E2E2E2E2E2E2E2E2E2E2E2E2E2E2F5F5EFF5E2E2E2E2E2E2E2E2E2E2E2E2E2E2E2E2E2E2E2E2E2E2E2E2E2E2E2E2E2E2E2E2E2E2
310
E2E2E2E2E2E2E2E2E2E2E2E2E2E2E2E2E2E2E2E2E2E2E2E2E2E2E2E2E2E2E2E2E2E2E2E2E2E2E2E2E2E2E2E2E2E2E2E2E2E2E2E2E2E2E2E2E2E2E2E2E2E2E2E2E2E2E2E2E2E2E2E2E2E2E2E2E2E2E2E2E2E2E2E2E2E2E2E2E2E2E2E2E2E2E2E2E2E2E2E2E2E2E2E2E2E2E2E2E2E2E2E2E2E2E2E2E2E2E2E2E2E2E2E2E2E2E2
310
E2E2E2E2E2E2E2E2E2E2E2E2E2E2E2F5F5EFF5E2E2F5E2E2E2E2E2E2E2E2E2E2E2E2E2E2E2E2E2E2E2E2E2E2E2E2E2E2E2E2E2E2E2E2E2E2E2E2E2E2E2E2E2E2E2E2E2E2E2E2E2E2E2E2E2E2E2E2E2E2E2E2E2E2E2E2E2E2E2E2E2E2E2E2E2E2E2E2E2E2E2E2E2E2E2E2E2E2E2E2E2E2E2E2E2E2E2E2E2E2E2E2E2E2E2E2E2
310
E2E2E2E2E2E2E2E2E2E2E2E2E2E2E2E2E2E2E2E2E2E2E2E2E2E2E2E2E2E2E2E2E2E2E2E2E2E2E2E2E2E2E2E2E2E2E2E2E2E2E2E2E2E2E2E2E2E2E2E2E2E2E2E2E2F5E2E2F5F5EFF5E2E2F5E2E2E2E2E2E2E2E2E2E2E2E2E2E2E2E2E2E2E2E2E2E2E2E2E2E2E2E2E2E2E2E2E2E2E2E2E2E2E2E2E2E2E2E2E2E2E2E2E2E2E2E2
310
E2E2E2E2E2E2E2E2E2E2E2E2E2E2E2E2E2E2E2E2E2E2E2E2E2E2E2E2E2E2E2E2E2E2E2E2E2E2E2E2E2E2E2E2E2E2E2E2E2E2E2E2E2E2E2E2E2E2E2E2E2E2E2E2E2E2E2E2E2E2E2E2E2E2E2E2E2E2E2E2E2E2E2E2E2E2E2E2E2E2E2E2E2E2E2E2E2E2E2E2E2E2E2E2E2E2E2E2E2E2E2E2E2E2E2E2E2E2F5E2E2F5F5EFF5E2E2
310
F5E2E2E2E2E2E2E2E2E2E2E2E2E2E2E2E2E2E2E2E2E2E2E2E2E2E2E2E2E2E2E2E2E2E2E2E2E2E2E2E2E2E2E2E2E2E2E2E2E2E2E2E2E2E2E2E2E2E2E2E2E2E2E2E2E2E2E2E2E2E2E2E2E2E2E2E2E2E2E2E2E2E2E2E2E2E2E2E2E2E2E2E2E2E2E2E2E2E2E2E2E2E2E2E2E2E2E2E2E2E2E2E2E2E2E2E2E2E2E2E2E2E2E2E2E2E2
310
E2E2E2E2E2E2E2E2E2E2E2E2E2E2E2E2E2E2E2E2E2E2E2E2E2E2E2E2E2E2E2E2E2E2E2E2E2E2E2E2E2E2E2E2F5E2E2F5F5EFF5E2E2F5E2E2E2E2E2E2E2E2E2E2E2E2E2E2E2E2E2E2E2E2E2E2E2E2E2E2E2E2E2E2E2E2E2E2E2E2E2E2E2E2E2E2E2E2E2E2E2E2E2E2E2E2E2E2E2E2E2E2E2E2E2E2E2E2E2E2E2E2E2E2E2E2E2
310
E2E2E2E2E2E2E2E2E2E2E2E2E2E2E2E2E2E2E2E2E2E2E2E2E2E2E2E2E2E2E2E2E2E2E2E2E2E2E2E2E2E2E2E2E2E2E2E2E2E2E2E2E2E2E2E2E2E2E2E2E2E2E2E2E2E2E2E2E2E2E2E2E2E2E2E2E2E2E2E2E2E2E2E2E2E2E2E2E2E2E2E2E2E2E2E2E2F5E2E2F5F5EFF5E2E2F5E2E2E2E2E2E2E2E2E2E2E2E2E2E2E2E2E2E2E2E2
310
E2E2E2E2E2E2E2E2E2E2E2E2E2E2E2E2E2E2E2E2E2E2E2E2E2E2E2E2E2E2E2E2E2E2E2E2E2E2E2E2E2E2E2E2E2E2E2E2E2E2E2E2E2E2E2E2E2E2E2E2E2E2E2E2E2E2E2E2E2E2E2E2E2E2E2E2E2E2E2E2E2E2E2E2E2E2E2E2E2E2E2E2E2E2E2E2E2E2E2E2E2E2E2E2E2E2E2E2E2E2E2E2E2E2E2E2E2E2E2E2E2E2E2E2E2E2E2
310
E2E2E2E2E2E2E2E2E2E2E2E2E2E2E2E2E2E2E2E2E2E2E2F5E2E2F5F5EFF5E2E2F5E2E2E2E2E2E2E2E2E2E2E2E2E2E2E2E2E2E2E2E2E2E2E2E2E2E2E2E2E2E2E2E2E2E2E2E2E2E2E2E2E2E2E2E2E2E2E2E2E2E2E2E2E2E2E2E2E2E2E2E2E2E2E2E2E2E2E2E2E2E2E2E2E2E2E2E2E2E2E2E2E2E2E2E2E2E2E2E2E2E2E2E2E2E2
310
E2E2E2E2E2E2E2E2E2E2E2E2E2E2E2E2E2E2E2E2E2E2E2E2E2E2E2E2E2E2E2E2E2E2E2E2E2E2E2E2E2E2E2E2E2E2E2E2E2E2E2E2E2E2E2E2E2E2E2E2E2E2E2E2E2E2E2E2E2E2E2E2E2E2E2E2F5E2E2F5F5EFF5E2E2F5E2E2E2E2E2E2E2E2E2E2E2E2E2E2E2E2E2E2E2E2E2E2E2E2E2E2E2E2E2E2E2E2E2E2E2E2E2E2E2E2E2
310
E2E2E2E2E2E2E2E2E2E2E2E2E2E2E2E2E2E2E2E2E2E2E2E2E2E2E2E2E2E2E2E2E2E2E2E2E2E2E2E2E2E2E2E2E2E2E2E2E2E2E2E2E2E2E2E2E2E2E2E2E2E2E2E2E2E2E2E2E2E2E2E2E2E2E2E2E2E2E2E2E2E2E2E2E2E2E2E2E2E2E2E2E2E2E2E2E2E2E2E2E2E2E2E2E2E2E2E2E2E2E2E2E2E2E2E2E2E2E2E2E2E2E2E2E2E2E2
310
E2E2F5E2E2F5F5EFF5E2E2F5E2E2E2E2E2E2E2E2E2E2E2E2E2E2E2E2E2E2E2E2E2E2E2E2E2E2E2E2E2E2E2E2E2E2E2E2E2E2E2E2E2E2E2E2E2E2E2E2E2E2E2E2E2E2E2E2E2E2E2E2E2E2E2E2E2E2E2E2E2E2E2E2E2E2E2E2E2E2E2E2E2E2E2E2E2E2E2E2E2E2E2E2E2E2E2E2E2E2E2E2E2E2E2E2E2E2E2E2E2E2E2E2E2E2E2
310
E2E2E2E2E2E2E2E2E2E2E2E2E2E2E2E2E2E2E2E2E2E2E2E2E2E2E2E2E2E2E2E2E2E2E2E2E2E2E2E2E2E2E2E2E2E2E2E2E2E2E2E2E2E2E2F5E2E2F5F5EFF5E2E2F5E2E2E2E2E2E2E2E2E2E2E2E2E2E2E2E2E2E2E2E2E2E2E2E2E2E2E2E2E2E2E2E2E2E2E2E2E2E2E2E2E2E2E2E2E2E2E2E2E2E2E2E2E2E2E2E2E2E2E2E2E2E2
310
E2E2E2E2E2E2E2E2E2E2E2E2E2E2E2E2E2E2E2E2E2E2E2E2E2E2E2E2E2E2E2E2E2E2E2E2E2E2E2E2E2E2E2E2E2E2E2E2E2E2E2E2E2E2E2E2E2E2E2E2E2E2E2E2E2E2E2E2E2E2E2E2E2E2E2E2E2E2E2E2E2E2E2E2E2E2E2E2E2E2E2E2E2E2E2E2E2E2E2E2E2E2E2E2E2E2E2E2F5E2E2F5F5EFF5E2E2F5E2E2E2E2E2E2E2E2E2
310
E2E2E2E2E2E2E2E2E2E2E2E2E2E2E2E2E2E2E2E2E2E2E2E2E2E2E2E2E2E2E2E2E2E2E2E2E2E2E2E2E2E2E2E2E2E2E2E2E2E2E2E2E2E2E2E2E2E2E2E2E2E2E2E2E2E2E2E2E2E2E2E2E2E2E2E2E2E2E2E2E2E2E2E2E2E2E2E2E2E2E2E2E2E2E2E2E2E2E2E2E2E2E2E2E2E2E2E2E2E2E2E2E2E2E2E2E2E2E2E2E2E2E2E2E2E2E2
310
E2E2E2E2E2E2E2E2E2E2E2E2E2E2E2E2E2E2E2E2E2E2E2E2E2E2E2E2E2E2E2E2E2E2F5E2E2F5F5EFF5E2E2F5E2E2E2E2E2E2E2E2E2E2E2E2E2E2E2E2E2E2E2E2E2E2E2E2E2E2E2E2E2E2E2E2E2E2E2E2E2E2E2E2E2E2E2E2E2E2E2E2E2E2E2E2E2E2E2E2E2E2E2E2E2E2E2E2E2E2E2E2E2E2E2E2E2E2E2E2E2E2E2E2E2E2E2
310
E2E2E2E2E2E2E2E2E2E2E2E2E2E2E2E2E2E2E2E2E2E2E2E2E2E2E2E2E2E2E2E2E2E2E2E2E2E2E2E2E2E2E2E2E2E2E2E2E2E2E2E2E2E2E2E2E2E2E2E2E2E2E2E2E2E2E2E2E2E2E2E2E2E2E2E2E2E2E2E2E2E2E2E2E2E2E2F5E2E2F5F5EFF5E2E2F5E2E2E2E2E2E2E2E2E2E2E2E2E2E2E2E2E2E2E2E2E2E2E2E2E2E2E2E2E2E2
310
E2E2E2E2E2E2E2E2E2E2E2E2E2E2E2E2E2E2E2E2E2E2E2E2E2E2E2E2E2E2E2E2E2E2E2E2E2E2E2E2E2E2E2E2E2E2E2E2E2E2E2E2E2E2E2E2E2E2E2E2E2E2E2E2E2E2E2E2E2E2E2E2E2E2E2E2E2E2E2E2E2E2E2E2E2E2E2E2E2E2E2E2E2E2E2E2E2E2E2E2E2E2E2E2E2E2E2E2E2E2E2E2E2E2E2E2E2E2E2E2E2E2E2E2E2E2E2
310
E2E2E2E2E2E2E2E2E2E2E2E2E2F5E2E2F5F5EFF5E2E2F5E2E2E2E2E2E2E2E2E2E2E2E2E2E2E2E2E2E2E2E2E2E2E2E2E2E2E2E2E2E2E2E2E2E2E2E2E2E2E2E2E2E2E2E2E2E2E2E2E2E2E2E2E2E2E2E2E2E2E2E2E2E2E2E2E2E2E2E2E2E2E2E2E2E2E2E2E2E2E2E2E2E2E2E2E2E2E2E2E2E2E2E2E2E2E2E2E2E2E2E2E2E2E2E2
310
E2E2E2E2E2E2E2E2E2E2E2E2E2E2E2E2E2E2E2E2E2E2E2E2E2E2E2E2E2E2E2E2E2E2E2E2E2E2E2E2E2E2E2E2E2E2E2E2E2E2E2E2E2E2E2E2E2E2E2E2E2E2E2E2E2E2F5E2E2F5F5EFF5E2E2F5E2E2E2E2E2E2E2E2E2E2E2E2E2E2E2E2E2E2E2E2E2E2E2E2E2E2E2E2E2E2E2E2E2E2E2E2E2E2E2E2E2E2E2E2E2E2E2E2E2E2E2
310
E2E2E2E2E2E2E2E2E2E2E2E2E2E2E2E2E2E2E2E2E2E2E2E2E2E2E2E2E2E2E2E2E2E2E2E2E2E2E2E2E2E2E2E2E2E2E2E2E2E2E2E2E2E2E2E2E2E2E2E2E2E2E2E2E2E2E2E2E2E2E2E2E2E2E2E2E2E2E2E2E2E2E2E2E2E2E2E2E2E2E2E2E2E2E2E2E2E2E2E2E2E2E2E2E2E2E2E2E2E2E2E2E2E2E2E2E2E2E2F5E2E2F5F5EFF5E2
310
E2F5E2E2E2E2E2E2E2E2E2E2E2E2E2E2E2E2E2E2E2E2E2E2E2E2E2E2E2E2E2E2E2E2E2E2E2E2E2E2E2E2E2E2E2E2E2E2E2E2E2E2E2E2E2E2E2E2E2E2E2E2E2E2E2E2E2E2E2E2E2E2E2E2E2E2E2E2E2E2E2E2E2E2E2E2E2E2E2E2E2E2E2E2E2E2E2E2E2E2E2E2E2E2E2E2E2E2E2E2E2E2E2E2E2E2E2E2E2E2E2E2E2E2E2E2E2
310
E2E2E2E2E2E2E2E2E2E2E2E2E2E2E2E2E2E2E2E2E2E2E2E2E2E2E2E2E2E2E2E2E2E2E2E2E2E2E2E2E2E2E2E2E2F5E2E2F5F5EFF5E2E2E2E2E2E2E2E2E2E2E2E2E2E2E2E2E2E2E2E2E2E2E2E2E2E2E2E2E2E2E2E2E2E2E2E2E2E2E2E2E2E2E2E2E2E2E2E2E2E2E2E2E2E2E2E2E2E2E2E2E2E2E2E2E2E2E2E2E2E2E2E2E2E2E2
310
E2E2E2E2E2E2E2E2E2E2E2E2E2E2E2E2E2E2E2E2E2E2E2E2E2E2E2E2E2E2E2E2E2E2E2E2E2E2E2E2E2E2E2E2E2E2E2E2E2E2E2E2E2E2E2E2E2E2E2E2E2E2E2E2E2E2E2E2E2E2E2E2E2E2E2E2E2E2E2E2E2E2E2E2E2E2E2E2E2E2E2E2E2E2E2E2E2E2E2E2E2F5F5EFF5E2E2E2E2E2E2E2E2E2E2E2E2E2E2E2E2E2E2E2E2E2E2
310
E2E2E2E2E2E2E2E2E2E2E2E2E2E2E2E2E2E2E2E2E2E2E2E2E2E2E2E2E2E2E2E2E2E2E2E2E2E2E2E2E2E2E2E2E2E2E2E2E2E2E2E2E2E2E2E2E2E2E2E2E2E2E2E2E2E2E2E2E2E2E2E2E2E2E2E2E2E2E2E2E2E2E2E2E2E2E2E2E2E2E2E2E2E2E2E2E2E2E2E2E2E2E2E2E2E2E2E2E2E2E2E2E2E2E2E2E2E2E2E2E2E2E2E2E2E2E2
310
E2E2E2E2E2E2E2E2E2E2E2E2E2E2E2E2E2E2E2E2E2E2E2E2E2E2E2F5F5EFF5E2E2E2E2E2E2E2E2E2E2E2E2E2E2E2E2E2E2E2E2E2E2E2E2E2E2E2E2E2E2E2E2E2E2E2E2E2E2E2E2E2E2E2E2E2E2E2E2E2E2E2E2E2E2E2E2E2E2E2E2E2E2E2E2E2E2E2E2E2E2E2E2E2E2E2E2E2E2E2E2E2E2E2E2E2E2E2E2E2E2E2E2E2E2E2E2
310
E2E2E2E2E2E2E2E2E2E2E2E2E2E2E2E2E2E2E2E2E2E2E2E2E2E2E2E2E2E2E2E2E2E2E2E2E2E2E2E2E2E2E2E2E2E2E2E2E2E2E2E2E2E2E2E2E2E2E2E2E2E2E2E2E2E2E2E2E2E2E2E2E2E2E2E2E2E2E2E2F5F5EFF5E2E2E2E2E2E2E2E2E2E2E2E2E2E2E2E2E2E2E2E2E2E2E2E2E2E2E2E2E2E2E2E2E2E2E2E2E2E2E2E2E2E2E2
310
E2E2E2E2E2E2E2E2E2E2E2E2E2E2E2E2E2E2E2E2E2E2E2E2E2E2E2E2E2E2E2E2E2E2E2E2E2E2E2E2E2E2E2E2E2E2E2E2E2E2E2E2E2E2E2E2E2E2E2E2E2E2E2E2E2E2E2E2E2E2E2E2E2E2E2E2E2E2E2E2E2E2E2E2E2E2E2E2E2E2E2E2E2E2E2E2E2E2E2E2E2E2E2E2E2E2E2E2E2E2E2E2E2E2E2E2E2E2E2E2E2E2E2E2E2E2E2
310
E2E2E2E2E2E2F5F5EFF5E2E2E2E2E2E2E2E2E2E2E2E2E2E2E2E2E2E2E2E2E2E2E2E2E2E2E2E2E2E2E2E2E2E2E2E2E2E2E2E2E2E2E2E2E2E2E2E2E2E2E2E2E2E2E2E2E2E2E2E2E2E2E2E2E2E2E2E2E2E2E2E2E2E2E2E2E2E2E2E2E2E2E2E2E2E2E2E2E2E2E2E2E2E2E2E2E2E2E2E2E2E2E2E2E2E2E2E2E2E2E2E2E2E2E2E2E2
310
E2E2E2E2E2E2E2E2E2E2E2E2E2E2E2E2E2E2E2E2E2E2E2E2E2E2E2E2E2E2E2E2E2E2E2E2E2E2E2E2E2E2E2E2E2E2E2E2E2E2E2E2E2E2E2E2E2E2E2F5F5EFF5E2E2E2E2E2E2E2E2E2E2E2E2E2E2E2E2E2E2E2E2E2E2E2E2E2E2E2E2E2E2E2E2E2E2E2E2E2E2E2E2E2E2E2E2E2E2E2E2E2E2E2E2E2E2E2E2E2E2E2E2E2E2E2E2
310
E2E2E2E2E2E2E2E2E2E2E2E2E2E2E2E2E2E2E2E2E2E2E2E2E2E2E2E2E2E2E2E2E2E2E2E2E2E2E2E2E2E2E2E2E2E2E2E2E2E2E2E2E2E2E2E2E2E2E2E2E2E2E2E2E2E2E2E2E2E2E2E2E2E2E2E2E2E2E2E2E2E2E2E2E2E2E2E2E2E2E2E2E2E2E2E2E2E2E2E2E2E2E2E2E2E2E2E2E2E2E2E2F5F5EFF5E2E2E2E2E2E2E2E2E2E2E2
310
E2E2E2E2E2E2E2E2E2E2E2E2E2E2E2E2E2E2E2E2E2E2E2E2E2E2E2E2E2E2E2E2E2E2E2E2E2E2E2E2E2E2E2E2E2E2E2E2E2E2E2E2E2E2E2E2E2E2E2E2E2E2E2E2E2E2E2E2E2E2E2E2E2E2E2E2E2E2E2E2E2E2E2E2E2E2E2E2E2E2E2E2E2E2E2E2E2E2E2E2E2E2E2E2E2E2E2E2E2E2E2E2E2E2E2E2E2E2E2E2E2E2E2E2E2E2E2
310
E2E2E2E2E2E2E2E2E2E2E2E2E2E2E2E2E2E2E2E2E2E2E2E2E2E2E2E2E2E2E2E2E2E2E2E2E2E2F5F5EFF5E2E2E2E2E2E2E2E2E2E2E2E2E2E2E2E2E2E2E2E2E2E2E2E2E2E2E2E2E2E2E2E2E2E2E2E2E2E2E2E2E2E2E2E2E2E2E2E2E2E2E2E2E2E2E2E2E2E2E2E2E2E2E2E2E2E2E2E2E2E2E2E2E2E2E2E2E2E2E2E2E2E2E2E2E2
310
E2E2E2E2E2E2E2E2E2E2E2E2E2E2E2E2E2E2E2E2E2E2E2E2E2E2E2E2E2E2E2E2E2E2E2E2E2E2E2E2E2E2E2E2E2E2E2E2E2E2E2E2E2E2E2E2E2E2E2E2E2E2E2E2E2E2E2E2E2E2E2E2E2E2E2E2E2E2E2E2E2E2E2E2E2E2E2E2E2E2E2F5F5EFF5E2E2F5E2E2E2E2E2E2E2E2E2E2E2E2E2E2E2E2E2E2E2E2E2E2E2E2E2E2E2E2E2
310
E2E2E2E2E2E2E2E2E2E2E2E2E2E2E2E2E2E2E2E2E2E2E2E2E2E2E2E2E2E2E2E2E2E2E2E2E2E2E2E2E2E2E2E2E2E2E2E2E2E2E2E2E2E2E2E2E2E2E2E2E2E2E2E2E2E2E2E2E2E2E2E2E2E2E2E2E2E2E2E2E2E2E2E2E2E2E2E2E2E2E2E2E2E2E2E2E2E2E2E2E2E2E2E2E2E2E2E2E2E2E2E2E2E2E2E2E2E2E2E2E2E2E2E2E2E2E2
310
E2E2E2E2E2E2E2E2E2E2E2E2E2E2F5E2E2F5F5EFF5E2E2F5E2E2E2E2E2E2E2E2E2E2E2E2E2E2E2E2E2E2E2E2E2E2E2E2E2E2E2E2E2E2E2E2E2E2E2E2E2E2E2E2E2E2E2E2E2E2E2E2E2E2E2E2E2E2E2E2E2E2E2E2E2E2E2E2E2E2E2E2E2E2E2E2E2E2E2E2E2E2E2E2E2E2E2E2E2E2E2E2E2E2E2E2E2E2E2E2E2E2E2E2E2E2E2
310
E2E2E2E2E2E2E2E2E2E2E2E2E2E2E2E2E2E2E2E2E2E2E2E2E2E2E2E2E2E2E2E2E2E2E2E2E2E2E2E2E2E2E2E2E2E2E2E2E2E2E2E2E2E2E2E2E2E2E2E2E2E2E2E2E2E2E2F5E2E2F5F5EFF5E2E2F5E2E2E2E2E2E2E2E2E2E2E2E2E2E2E2E2E2E2E2E2E2E2E2E2E2E2E2E2E2E2E2E2E2E2E2E2E2E2E2E2E2E2E2E2E2E2E2E2E2E2
310
E2E2E2E2E2E2E2E2E2E2E2E2E2E2E2E2E2E2E2E2E2E2E2E2E2E2E2E2E2E2E2E2E2E2E2E2E2E2E2E2E2E2E2E2E2E2E2E2E2E2E2E2E2E2E2E2E2E2E2E2E2E2E2E2E2E2E2E2E2E2E2E2E2E2E2E2E2E2E2E2E2E2E2E2E2E2E2E2E2E2E2E2E2E2E2E2E2E2E2E2E2E2E2E2E2E2E2E2E2E2E2E2E2E2E2E2E2E2E2E2F5E2E2F5F5EFF5
310
E2E2F5E2E2E2E2E2E2E2E2E2E2E2E2E2E2E2E2E2E2E2E2E2E2E2E2E2E2E2E2E2E2E2E2E2E2E2E2E2E2E2E2E2E2E2E2E2E2E2E2E2E2E2E2E2E2E2E2E2E2E2E2E2E2E2E2E2E2E2E2E2E2E2E2E2E2E2E2E2E2E2E2E2E2E2E2E2E2E2E2E2E2E2E2E2E2E2E2E2E2E2E2E2E2E2E2E2E2E2E2E2E2E2E2E2E2E2E2E2E2E2E2E2E2E2E2
310
E2E2E2E2E2E2E2E2E2E2E2E2E2E2E2E2E2E2E2E2E2E2E2E2E2E2E2E2E2E2E2E2E2E2E2E2E2E2E2E2E2E2E2E2E2E2F5E2E2F5F5EFF5E2E2F5E2E2E2E2E2E2E2E2E2E2E2E2E2E2E2E2E2E2E2E2E2E2E2E2E2E2E2E2E2E2E2E2E2E2E2E2E2E2E2E2E2E2E2E2E2E2E2E2E2E2E2E2E2E2E2E2E2E2E2E2E2E2E2E2E2E2E2E2E2E2E2
310
E2E2E2E2E2E2E2E2E2E2E2E2E2E2E2E2E2E2E2E2E2E2E2E2E2E2E2E2E2E2E2E2E2E2E2E2E2E2E2E2E2E2E2E2E2E2E2E2E2E2E2E2E2E2E2E2E2E2E2E2E2E2E2E2E2E2E2E2E2E2E2E2E2E2E2E2E2E2E2E2E2E2E2E2E2E2E2E2E2E2E2E2E2E2E2E2E2E2E2F5E2E2F5F5EFF5E2E2F5E2E2E2E2E2E2E2E2E2E2E2E2E2E2E2E2E2E2
310
E2E2E2E2E2E2E2E2E2E2E2E2E2E2E2E2E2E2E2E2E2E2E2E2E2E2E2E2E2E2E2E2E2E2E2E2E2E2E2E2E2E2E2E2E2E2E2E2E2E2E2E2E2E2E2E2E2E2E2E2E2E2E2E2E2E2E2E2E2E2E2E2E2E2E2E2E2E2E2E2E2E2E2E2E2E2E2E2E2E2E2E2E2E2E2E2E2E2E2E2E2E2E2E2E2E2E2E2E2E2E2E2E2E2E2E2E2E2E2E2E2E2E2E2E2E2E2
310
E2E2E2E2E2E2E2E2E2E2E2E2E2E2E2E2E2E2E2E2E2E2E2E2E2F5E2E2F5F5EFF5E2E2F5E2E2E2E2E2E2E2E2E2E2E2E2E2E2E2E2E2E2E2E2E2E2E2E2E2E2E2E2E2E2E2E2E2E2E2E2E2E2E2E2E2E2E2E2E2E2E2E2E2E2E2E2E2E2E2E2E2E2E2E2E2E2E2E2E2E2E2E2E2E2E2E2E2E2E2E2E2E2E2E2E2E2E2E2E2E2E2E2E2E2E2E2
310
E2E2E2E2E2E2E2E2E2E2E2E2E2E2E2E2E2E2E2E2E2E2E2E2E2E2E2E2E2E2E2E2E2E2E2E2E2E2E2E2E2E2E2E2E2E2E2E2E2E2E2E2E2E2E2E2E2E2E2E2E2E2E2E2E2E2E2E2E2E2E2E2E2E2E2E2E2E2F5E2E2F5F5EFF5E2E2F5E2E2E2E2E2E2E2E2E2E2E2E2E2E2E2E2E2E2E2E2E2E2E2E2E2E2E2E2E2E2E2E2E2E2E2E2E2E2E2
310
E2E2E2E2E2E2E2E2E2E2E2E2E2E2E2E2E2E2E2E2E2E2E2E2E2E2E2E2E2E2E2E2E2E2E2E2E2E2E2E2E2E2E2E2E2E2E2E2E2E2E2E2E2E2E2E2E2E2E2E2E2E2E2E2E2E2E2E2E2E2E2E2E2E2E2E2E2E2E2E2E2E2E2E2E2E2E2E2E2E2E2E2E2E2E2E2E2E2E2E2E2E2E2E2E2E2E2E2E2E2E2E2E2E2E2E2E2E2E2E2E2E2E2E2E2E2E2
310
E2E2E2E2F5E2E2F5F5EFF5E2E2F5E2E2E2E2E2E2E2E2E2E2E2E2E2E2E2E2E2E2E2E2E2E2E2E2E2E2E2E2E2E2E2E2E2E2E2E2E2E2E2E2E2E2E2E2E2E2E2E2E2E2E2E2E2E2E2E2E2E2E2E2E2E2E2E2E2E2E2E2E2E2E2E2E2E2E2E2E2E2E2E2E2E2E2E2E2E2E2E2E2E2E2E2E2E2E2E2E2E2E2E2E2E2E2E2E2E2E2E2E2E2E2E2E2
310
E2E2E2E2E2E2E2E2E2E2E2E2E2E2E2E2E2E2E2E2E2E2E2E2E2E2E2E2E2E2E2E2E2E2E2E2E2E2E2E2E2E2E2E2E2E2E2E2E2E2E2E2E2E2E2E2E2F5E2E2F5F5EFF5E2E2F5E2E2E2E2E2E2E2E2E2E2E2E2E2E2E2E2E2E2E2E2E2E2E2E2E2E2E2E2E2E2E2E2E2E2E2E2E2E2E2E2E2E2E2E2E2E2E2E2E2E2E2E2E2E2E2E2E2E2E2E2
310
E2E2E2E2E2E2E2E2E2E2E2E2E2E2E2E2E2E2E2E2E2E2E2E2E2E2E2E2E2E2E2E2E2E2E2E2E2E2E2E2E2E2E2E2E2E2E2E2E2E2E2E2E2E2E2E2E2E2E2E2E2E2E2E2E2E2E2E2E2E2E2E2E2E2E2E2E2E2E2E2E2E2E2E2E2E2E2E2E2E2E2E2E2E2E2E2E2E2E2E2E2E2E2E2E2E2E2E2E2E2F5E2E2F5F5EFF5E2E2F5E2E2E2E2E2E2E2
310
E2E2E2E2E2E2E2E2E2E2E2E2E2E2E2E2E2E2E2E2E2E2E2E2E2E2E2E2E2E2E2E2E2E2E2E2E2E2E2E2E2E2E2E2E2E2E2E2E2E2E2E2E2E2E2E2E2E2E2E2E2E2E2E2E2E2E2E2E2E2E2E2E2E2E2E2E2E2E2E2E2E2E2E2E2E2E2E2E2E2E2E2E2E2E2E2E2E2E2E2E2E2E2E2E2E2E2E2E2E2E2E2E2E2E2E2E2E2E2E2E2E2E2E2E2E2E2
310
E2E2E2E2E2E2E2E2E2E2E2E2E2E2E2E2E2E2E2E2E2E2E2E2E2E2E2E2E2E2E2E2E2E2E2E2F5E2E2F5F5EFF5E2E2F5E2E2E2E2E2E2E2E2E2E2E2E2E2E2E2E2E2E2E2E2E2E2E2E2E2E2E2E2E2E2E2E2E2E2E2E2E2E2E2E2E2E2E2E2E2E2E2E2E2E2E2E2E2E2E2E2E2E2E2E2E2E2E2E2E2E2E2E2E2E2E2E2E2E2E2E2E2E2E2E2E2
310
E2E2E2E2E2E2E2E2E2E2E2E2E2E2E2E2E2E2E2E2E2E2E2E2E2E2E2E2E2E2E2E2E2E2E2E2E2E2E2E2E2E2E2E2E2E2E2E2E2E2E2E2E2E2E2E2E2E2E2E2E2E2E2E2E2E2E2E2E2E2E2E2E2E2E2E2E2E2E2E2E2E2E2E2E2E2E2E2E2F5E2E2F5F5EFF5E2E2F5E2E2E2E2E2E2E2E2E2E2E2E2E2E2E2E2E2E2E2E2E2E2E2E2E2E2E2E2
310
E2E2E2E2E2E2E2E2E2E2E2E2E2E2E2E2E2E2E2E2E2E2E2E2E2E2E2E2E2E2E2E2E2E2E2E2E2E2E2E2E2E2E2E2E2E2E2E2E2E2E2E2E2E2E2E2E2E2E2E2E2E2E2E2E2E2E2E2E2E2E2E2E2E2E2E2E2E2E2E2E2E2E2E2E2E2E2E2E2E2E2E2E2E2E2E2E2E2E2E2E2E2E2E2E2E2E2E2E2E2E2E2E2E2E2E2E2E2E2E2E2E2E2E2E2E2E2
310
E2E2E2E2E2E2E2E2E2E2E2E2E2E2E2F5E2E2F5F5EFF5E2E2F5E2E2E2E2E2E2E2E2E2E2E2E2E2E2E2E2E2E2E2E2E2E2E2E2E2E2E2E2E2E2E2E2E2E2E2E2E2E2E2E2E2E2E2E2E2E2E2E2E2E2E2E2E2E2E2E2E2E2E2E2E2E2E2E2E2E2E2E2E2E2E2E2E2E2E2E2E2E2E2E2E2E2E2E2E2E2E2E2E2E2E2E2E2E2E2E2E2E2E2E2E2E2
310
E2E2E2E2E2E2E2E2E2E2E2E2E2E2E2E2E2E2E2E2E2E2E2E2E2E2E2E2E2E2E2E2E2E2E2E2E2E2E2E2E2E2E2E2E2E2E2E2E2E2E2E2E2E2E2E2E2E2E2E2E2E2E2E2E2E2E2E2F5E2E2F5F5EFF5E2E2F5E2E2E2E2E2E2E2E2E2E2E2E2E2E2E2E2E2E2E2E2E2E2E2E2E2E2E2E2E2E2E2E2E2E2E2E2E2E2E2E2E2E2E2E2E2E2E2E2E2
310
E2E2E2E2E2E2E2E2E2E2E2E2E2E2E2E2E2E2E2E2E2E2E2E2E2E2E2E2E2E2E2E2E2E2E2E2E2E2E2E2E2E2E2E2E2E2E2E2E2E2E2E2E2E2E2E2E2E2E2E2E2E2E2E2E2E2E2E2E2E2E2E2E2E2E2E2E2E2E2E2E2E2E2E2E2E2E2E2E2E2E2E2E2E2E2E2E2E2E2E2E2E2E2E2E2E2E2E2E2E2E2E2E2E2E2E2E2E2E2E2E2F5E2E2F5F5EF
310
F5E2E2E2E2E2E2E2E2E2E2E2E2E2E2E2E2E2E2E2E2E2E2E2E2E2E2E2E2E2E2E2E2E2E2E2E2E2E2E2E2E2E2E2E2E2E2E2E2E2E2E2E2E2E2E2E2E2E2E2E2E2E2E2E2E2E2E2E2E2E2E2E2E2E2E2E2E2E2E2E2E2E2E2E2E2E2E2E2E2E2E2E2E2E2E2E2E2E2E2E2E2E2E2E2E2E2E2E2E2E2E2E2E2E2E2E2E2E2E2E2E2E2E2E2E2E2
310
E2E2E2E2E2E2E2E2E2E2E2E2E2E2E2E2E2E2E2E2E2E2E2E2E2E2E2E2E2E2E2E2E2E2E2E2E2E2E2E2E2E2E2E2E2E2E2E2E2E2F5F5EFF5E2E2E2E2E2E2E2E2E2E2E2E2E2E2E2E2E2E2E2E2E2E2E2E2E2E2E2E2E2E2E2E2E2E2E2E2E2E2E2E2E2E2E2E2E2E2E2E2E2E2E2E2E2E2E2E2E2E2E2E2E2E2E2E2E2E2E2E2E2E2E2E2E2
310
E2E2E2E2E2E2E2E2E2E2E2E2E2E2E2E2E2E2E2E2E2E2E2E2E2E2E2E2E2E2E2E2E2E2E2E2E2E2E2E2E2E2E2E2E2E2E2E2E2E2E2E2E2E2E2E2E2E2E2E2E2E2E2E2E2E2E2E2E2E2E2E2E2E2E2E2E2E2E2E2E2E2E2E2E2E2E2E2E2E2E2E2E2E2E2E2E2E2E2E2E2E2E2F5F5EFF5E2E2E2E2E2E2E2E2E2E2E2E2E2E2E2E2E2E2E2E2
310
E2E2E2E2E2E2E2E2E2E2E2E2E2E2E2E2E2E2E2E2E2E2E2E2E2E2E2E2E2E2E2E2E2E2E2E2E2E2E2E2E2E2E2E2E2E2E2E2E2E2E2E2E2E2E2E2E2E2E2E2E2E2E2E2E2E2E2E2E2E2E2E2E2E2E2E2E2E2E2E2E2E2E2E2E2E2E2E2E2E2E2E2E2E2E2E2E2E2E2E2E2E2E2E2E2E2E2E2E2E2E2E2E2E2E2E2E2E2E2E2E2E2E2E2E2E2E2
310
E2E2E2E2E2E2E2E2E2E2E2E2E2E2E2E2E2E2E2E2E2E2E2E2E2E2E2E2E2F5F5EFF5E2E2E2E2E2E2E2E2E2E2E2E2E2E2E2E2E2E2E2E2E2E2E2E2E2E2E2E2E2E2E2E2E2E2E2E2E2E2E2E2E2E2E2E2E2E2E2E2E2E2E2E2E2E2E2E2E2E2E2E2E2E2E2E2E2E2E2E2E2E2E2E2E2E2E2E2E2E2E2E2E2E2E2E2E2E2E2E2E2E2E2E2E2E2
310
E2E2E2E2E2E2E2E2E2E2E2E2E2E2E2E2E2E2E2E2E2E2E2E2E2E2E2E2E2E2E2E2E2E2E2E2E2E2E2E2E2E2E2E2E2E2E2E2E2E2E2E2E2E2E2E2E2E2E2E2E2E2E2E2E2E2E2E2E2E2E2E2E2E2E2E2E2E2E2E2E2E2F5F5EFF5E2E2E2E2E2E2E2E2E2E2E2E2E2E2E2E2E2E2E2E2E2E2E2E2E2E2E2E2E2E2E2E2E2E2E2E2E2E2E2E2E2
310
E2E2E2E2E2E2E2E2E2E2E2E2E2E2E2E2E2E2E2E2E2E2E2E2E2E2E2E2E2E2E2E2E2E2E2E2E2E2E2E2E2E2E2E2E2E2E2E2E2E2E2E2E2E2E2E2E2E2E2E2E2E2E2E2E2E2E2E2E2E2E2E2E2E2E2E2E2E2E2E2E2E2E2E2E2E2E2E2E2E2E2E2E2E2E2E2E2E2E2E2E2E2E2E2E2E2E2E2E2E2E2E2E2E2E2E2E2E2E2E2E2E2E2E2E2E2E2
310
E2E2E2E2E2E2E2E2F5F5EFF5E2E2F5F5F5F5F5F5F5F5F5F5F5F5F5F5F5F5F5F5F5F5F5F5F5F5F5F5F5F5F5F5F5F5F5F5F5F5F5F5F5F5F5F5F5F5F5F5F5F5F5F5F5F5F5F5F5F5F5F5F5F5F5F5F5F5F5F5F5F5F5F5F5F5F5F5F5F5F5F5F5F5F5F5F5F5F5F5F5F5F5F5F5F5F5F5F5F5F5F5F5F5F5F5F5F5F5F5F5F5F5F5F5F5F5
310
F5F5F5F5F5F5F5F5F5F5F5F5F5F5F5F5F5F5F5F5F5F5F5F5F5F5F5F5F5F5F5F5F5F5F5F5F5F5F5F5F5F5F5F5F5F5F5F5F5F5F5F5F5F5F5F5F5F5E2E2E2F5F5EFF5E2E2E2E2E2E2E2E2E2E2E2E2E2E2E2E2E2E2E2E2E2E2E2E2E2E2E2E2E2E2E2E2E2E2E2E2E2E2E2E2E2E2E2E2E2E2E2E2E2E2E2E2E2E2E2E2E2E2E2E2E2E2
310
E2E2E2E2E2E2E2E2E2E2E2E2E2E2E2E2E2E2E2E2E2E2E2E2E2E2E2E2E2E2E2E2E2E2E2E2E2E2E2E2E2E2E2E2E2E2E2E2E2E2E2E2E2E2E2E2E2E2E2E2E2E2E2E2E2E2E2E2E2E2E2E2E2E2E2E2E2E2E2E2E2E2E2E2E2E2E2E2E2E2E2E2E2E2E2E2E2E2E2E2E2E2E2E2E2E2E2E2E2E2E2E2E2E2F5F5EFF5E2E2E2E2E2E2E2E2E2
310
E2E2E2E2E2E2E2E2E2E2E2E2E2E2E2E2E2E2E2E2E2E2E2E2E2E2E2E2E2E2E2E2E2E2E2E2E2E2E2E2E2E2E2E2E2E2E2E2E2E2E2E2E2E2E2E2E2E2E2E2E2E2E2E2E2E2E2E2E2E2E2E2E2E2E2E2E2E2E2E2E2E2E2E2E2E2E2E2E2E2E2E2E2E2E2E2E2E2E2E2E2E2E2E2E2E2E2E2E2E2E2E2E2E2E2E2E2E2E2E2E2E2E2E2E2E2E2
310
E2E2E2E2E2E2E2E2E2E2E2E2E2E2E2E2E2E2E2E2E2E2E2E2E2E2E2E2E2E2E2E2E2E2E2E2E2E2E2E2F5F5EFF5E2E2E2E2E2E2E2E2E2E2E2E2E2E2E2E2E2E2E2E2E2E2E2E2E2E2E2E2E2E2E2E2E2E2E2E2E2E2E2E2E2E2E2E2E2E2E2E2E2E2E2E2E2E2E2E2E2E2E2E2E2E2E2E2E2E2E2E2E2E2E2E2E2E2E2E2E2E2E2E2E2E2E2
310
E2E2E2E2E2E2E2E2E2E2E2E2E2E2E2E2E2E2E2E2E2E2E2E2E2E2E2E2E2E2E2E2E2E2E2E2E2E2E2E2E2E2E2E2E2E2E2E2E2E2E2E2E2E2E2E2E2E2E2E2E2E2E2E2E2E2E2E2E2E2E2E2E2E2E2E2E2E2E2E2E2E2E2E2E2E2E2E2E2E2E2E2E2F5F5EFF5E2E2F5E2E2E2E2E2E2E2E2E2E2E2E2E2E2E2E2E2E2E2E2E2E2E2E2E2E2E2
310
E2E2E2E2E2E2E2E2E2E2E2E2E2E2E2E2E2E2E2E2E2E2E2E2E2E2E2E2E2E2E2E2E2E2E2E2E2E2E2E2E2E2E2E2E2E2E2E2E2E2E2E2E2E2E2E2E2E2E2E2E2E2E2E2E2E2E2E2E2E2E2E2E2E2E2E2E2E2E2E2E2E2E2E2E2E2E2E2E2E2E2E2E2E2E2E2E2E2E2E2E2E2E2E2E2E2E2E2E2E2E2E2E2E2E2E2E2E2E2E2E2E2E2E2E2E2E2
310
E2E2E2E2E2E2E2E2E2E2E2E2E2E2E2E2F5E2E2F5F5EFF5E2E2F5E2E2E2E2E2E2E2E2E2E2E2E2E2E2E2E2E2E2E2E2E2E2E2E2E2E2E2E2E2E2E2E2E2E2E2E2E2E2E2E2E2E2E2E2E2E2E2E2E2E2E2E2E2E2E2E2E2E2E2E2E2E2E2E2E2E2E2E2E2E2E2E2E2E2E2E2E2E2E2E2E2E2E2E2E2E2E2E2E2E2E2E2E2E2E2E2E2E2E2E2E2
310
E2E2E2E2E2E2E2E2E2E2E2E2E2E2E2E2E2E2E2E2E2E2E2E2E2E2E2E2E2E2E2E2E2E2E2E2E2E2E2E2E2E2E2E2E2E2E2E2E2E2E2E2E2E2E2E2E2E2E2E2E2E2E2E2E2E2E2E2E2F5E2E2F5F5EFF5E2E2F5E2E2E2E2E2E2E2E2E2E2E2E2E2E2E2E2E2E2E2E2E2E2E2E2E2E2E2E2E2E2E2E2E2E2E2E2E2E2E2E2E2E2E2E2E2E2E2E2
310
E2E2E2E2E2E2E2E2E2E2E2E2E2E2E2E2E2E2E2E2E2E2E2E2E2E2E2E2E2E2E2E2E2E2E2E2E2E2E2E2E2E2E2E2E2E2E2E2E2E2E2E2E2E2E2E2E2E2E2E2E2E2E2E2E2E2E2E2E2E2E2E2E2E2E2E2E2E2E2E2E2E2E2E2E2E2E2E2E2E2E2E2E2E2E2E2E2E2E2E2E2E2E2E2E2E2E2E2E2E2E2E2E2E2E2E2E2E2E2E2E2E2F5E2E2F5F5
310
EFF5E2E2F5E2E2E2E2E2E2E2E2E2E2E2E2E2E2E2E2E2E2E2E2E2E2E2E2E2E2E2E2E2E2E2E2E2E2E2E2E2E2E2E2E2E2E2E2E2E2E2E2E2E2E2E2E2E2E2E2E2E2E2E2E2E2E2E2E2E2E2E2E2E2E2E2E2E2E2E2E2E2E2E2E2E2E2E2E2E2E2E2E2E2E2E2E2E2E2E2E2E2E2E2E2E2E2E2E2E2E2E2E2E2E2E2E2E2E2E2E2E2E2E2E2E2
310
E2E2E2E2E2E2E2E2E2E2E2E2E2E2E2E2E2E2E2E2E2E2E2E2E2E2E2E2E2E2E2E2E2E2E2E2E2E2E2E2E2E2E2E2E2E2E2E2F5E2E2F5F5EFF5E2E2F5E2E2E2E2E2E2E2E2E2E2E2E2E2E2E2E2E2E2E2E2E2E2E2E2E2E2E2E2E2E2E2E2E2E2E2E2E2E2E2E2E2E2E2E2E2E2E2E2E2E2E2E2E2E2E2E2E2E2E2E2E2E2E2E2E2E2E2E2E2
310
E2E2E2E2E2E2E2E2E2E2E2E2E2E2E2E2E2E2E2E2E2E2E2E2E2E2E2E2E2E2E2E2E2E2E2E2E2E2E2E2E2E2E2E2E2E2E2E2E2E2E2E2E2E2E2E2E2E2E2E2E2E2E2E2E2E2E2E2E2E2E2E2E2E2E2E2E2E2E2E2E2E2E2E2E2E2E2E2E2E2E2E2E2E2E2E2E2E2E2E2E2F5E2E2F5F5EFF5E2E2F5E2E2E2E2E2E2E2E2E2E2E2E2E2E2E2E2
310
E2E2E2E2E2E2E2E2E2E2E2E2E2E2E2E2E2E2E2E2E2E2E2E2E2E2E2E2E2E2E2E2E2E2E2E2E2E2E2E2E2E2E2E2E2E2E2E2E2E2E2E2E2E2E2E2E2E2E2E2E2E2E2E2E2E2E2E2E2E2E2E2E2E2E2E2E2E2E2E2E2E2E2E2E2E2E2E2E2E2E2E2E2E2E2E2E2E2E2E2E2E2E2E2E2E2E2E2E2E2E2E2E2E2E2E2E2E2E2E2E2E2E2E2E2E2E2
310
E2E2E2E2E2E2E2E2E2E2E2E2E2E2E2E2E2E2E2E2E2E2E2E2E2E2E2F5E2E2F5F5EFF5E2E2F5E2E2E2E2E2E2E2E2E2E2E2E2E2E2E2E2E2E2E2E2E2E2E2E2E2E2E2E2E2E2E2E2E2E2E2E2E2E2E2E2E2E2E2E2E2E2E2E2E2E2E2E2E2E2E2E2E2E2E2E2E2E2E2E2E2E2E2E2E2E2E2E2E2E2E2E2E2E2E2E2E2E2E2E2E2E2E2E2E2E2
310
E2E2E2E2E2E2E2E2E2E2E2E2E2E2E2E2E2E2E2E2E2E2E2E2E2E2E2E2E2E2E2E2E2E2E2E2E2E2E2E2E2E2E2E2E2E2E2E2E2E2E2E2E2E2E2E2E2E2E2E2E2E2E2E2E2E2E2E2E2E2E2E2E2E2E2E2E2E2E2E2F5E2E2F5F5EFF5E2E2F5E2E2E2E2E2E2E2E2E2E2E2E2E2E2E2E2E2E2E2E2E2E2E2E2E2E2E2E2E2E2E2E2E2E2E2E2E2
310
E2E2E2E2E2E2E2E2E2E2E2E2E2E2E2E2E2E2E2E2E2E2E2E2E2E2E2E2E2E2E2E2E2E2E2E2E2E2E2E2E2E2E2E2E2E2E2E2E2E2E2E2E2E2E2E2E2E2E2E2E2E2E2E2E2E2E2E2E2E2E2E2E2E2E2E2E2E2E2E2E2E2E2E2E2E2E2E2E2E2E2E2E2E2E2E2E2E2E2E2E2E2E2E2E2E2E2E2E2E2E2E2E2E2E2E2E2E2E2E2E2E2E2E2E2E2E2
310
E2E2E2E2E2E2F5E2E2F5F5EFF5E2E2F5E2E2E2E2E2E2E2E2E2E2E2E2E2E2E2E2E2E2E2E2E2E2E2E2E2E2E2E2E2E2E2E2E2E2E2E2E2E2E2E2E2E2E2E2E2E2E2E2E2E2E2E2E2E2E2E2E2E2E2E2E2E2E2E2E2E2E2E2E2E2E2E2E2E2E2E2E2E2E2E2E2E2E2E2E2E2E2E2E2E2E2E2E2E2E2E2E2E2E2E2E2E2E2E2E2E2E2E2E2E2E2
310
E2E2E2E2E2E2E2E2E2E2E2E2E2E2E2E2E2E2E2E2E2E2E2E2E2E2E2E2E2E2E2E2E2E2E2E2E2E2E2E2E2E2E2E2E2E2E2E2E2E2E2E2E2E2E2E2E2E2E2F5E2E2F5F5EFF5E2E2F5E2E2E2E2E2E2E2E2E2E2E2E2E2E2E2E2E2E2E2E2E2E2E2E2E2E2E2E2E2E2E2E2E2E2E2E2E2E2E2E2E2E2E2E2E2E2E2E2E2E2E2E2E2E2E2E2E2E2
310
E2E2E2E2E2E2E2E2E2E2E2E2E2E2E2E2E2E2E2E2E2E2E2E2E2E2E2E2E2E2E2E2E2E2E2E2E2E2E2E2E2E2E2E2E2E2E2E2E2E2E2E2E2E2E2E2E2E2E2E2E2E2E2E2E2E2E2E2E2E2E2E2E2E2E2E2E2E2E2E2E2E2E2E2E2E2E2E2E2E2E2E2E2E2E2E2E2E2E2E2E2E2E2E2E2E2E2E2E2E2E2E2F5E2E2F5F5EFF5E2E2F5E2E2E2E2E2
310
E2E2E2E2E2E2E2E2E2E2E2E2E2E2E2E2E2E2E2E2E2E2E2E2E2E2E2E2E2E2E2E2E2E2E2E2E2E2E2E2E2E2E2E2E2E2E2E2E2E2E2E2E2E2E2E2E2E2E2E2E2E2E2E2E2E2E2E2E2E2E2E2E2E2E2E2E2E2E2E2E2E2E2E2E2E2E2E2E2E2E2E2E2E2E2E2E2E2E2E2E2E2E2E2E2E2E2E2E2E2E2E2E2E2E2E2E2E2E2E2E2E2E2E2E2E2E2
310
E2E2E2E2E2E2E2E2E2E2E2E2E2E2E2E2E2E2E2E2E2E2E2E2E2E2E2E2E2E2E2E2E2E2E2E2E2E2F5E2E2F5F5EFF5E2E2F5E2E2E2E2E2E2E2E2E2E2E2E2E2E2E2E2E2E2E2E2E2E2E2E2E2E2E2E2E2E2E2E2E2E2E2E2E2E2E2E2E2E2E2E2E2E2E2E2E2E2E2E2E2E2E2E2E2E2E2E2E2E2E2E2E2E2E2E2E2E2E2E2E2E2E2E2E2E2E2
310
E2E2E2E2E2E2E2E2E2E2E2E2E2E2E2E2E2E2E2E2E2E2E2E2E2E2E2E2E2E2E2E2E2E2E2E2E2E2E2E2E2E2E2E2E2E2E2E2E2E2E2E2E2E2E2E2E2E2E2E2E2E2E2E2E2E2E2E2E2E2E2E2E2E2E2E2E2E2E2E2E2E2E2E2E2E2E2E2E2E2E2F5E2E2F5F5EFF5E2E2F5E2E2E2E2E2E2E2E2E2E2E2E2E2E2E2E2E2E2E2E2E2E2E2E2E2E2
310
E2E2E2E2E2E2E2E2E2E2E2E2E2E2E2E2E2E2E2E2E2E2E2E2E2E2E2E2E2E2E2E2E2E2E2E2E2E2E2E2E2E2E2E2E2E2E2E2E2E2E2E2E2E2E2E2E2E2E2E2E2E2E2E2E2E2E2E2E2E2E2E2E2E2E2E2E2E2E2E2E2E2E2E2E2E2E2E2E2E2E2E2E2E2E2E2E2E2E2E2E2E2E2E2E2E2E2E2E2E2E2E2E2E2E2E2E2E2E2E2E2E2E2E2E2E2E2
310
E2E2E2E2E2E2E2E2E2E2E2E2E2E2E2E2E2F5E2E2F5F5EFF5E2E2F5E2E2E2E2E2E2E2E2E2E2E2E2E2E2E2E2E2E2E2E2E2E2E2E2E2E2E2E2E2E2E2E2E2E2E2E2E2E2E2E2E2E2E2E2E2E2E2E2E2E2E2E2E2E2E2E2E2E2E2E2E2E2E2E2E2E2E2E2E2E2E2E2E2E2E2E2E2E2E2E2E2E2E2E2E2E2E2E2E2E2E2E2E2E2E2E2E2E2E2E2
310
E2E2E2E2E2E2E2E2E2E2E2E2E2E2E2E2E2E2E2E2E2E2E2E2E2E2E2E2E2E2E2E2E2E2E2E2E2E2E2E2E2E2E2E2E2E2E2E2E2E2E2E2E2E2E2E2E2E2E2E2E2E2E2E2E2E2E2E2E2E2F5E2E2F5F5EFF5E2E2F5E2E2E2E2E2E2E2E2E2E2E2E2E2E2E2E2E2E2E2E2E2E2E2E2E2E2E2E2E2E2E2E2E2E2E2E2E2E2E2E2E2E2E2E2E2E2E2
310
E2E2E2E2E2E2E2E2E2E2E2E2E2E2E2E2E2E2E2E2E2E2E2E2E2E2E2E2E2E2E2E2E2E2E2E2E2E2E2E2E2E2E2E2E2E2E2E2E2E2E2E2E2E2E2E2E2E2E2E2E2E2E2E2E2E2E2E2E2E2E2E2E2E2E2E2E2E2E2E2E2E2E2E2E2E2E2E2E2E2E2E2E2E2E2E2E2E2E2E2E2E2E2E2E2E2E2E2E2E2E2E2E2E2E2E2E2E2E2E2E2E2E2F5E2E2F5
310
F5EFF5E2E2E2E2E2E2E2E2E2E2E2E2E2E2E2E2E2E2E2E2E2E2E2E2E2E2E2E2E2E2E2E2E2E2E2E2E2E2E2E2E2E2E2E2E2E2E2E2E2E2E2E2E2E2E2E2E2E2E2E2E2E2E2E2E2E2E2E2E2E2E2E2E2E2E2E2E2E2E2E2E2E2E2E2E2E2E2E2E2E2E2E2E2E2E2E2E2E2E2E2E2E2E2E2E2E2E2E2E2E2E2E2E2E2E2E2E2E2E2E2E2E2E2E2
310
E2E2E2E2E2E2E2E2E2E2E2E2E2E2E2E2E2E2E2E2E2E2E2E2E2E2E2E2E2E2E2E2E2E2E2E2E2E2E2E2E2E2E2E2E2E2E2E2E2E2E2E2F5F5EFF5E2E2E2E2E2E2E2E2E2E2E2E2E2E2E2E2E2E2E2E2E2E2E2E2E2E2E2E2E2E2E2E2E2E2E2E2E2E2E2E2E2E2E2E2E2E2E2E2E2E2E2E2E2E2E2E2E2E2E2E2E2E2E2E2E2E2E2E2E2E2E2
310
E2E2E2E2E2E2E2E2E2E2E2E2E2E2E2E2E2E2E2E2E2E2E2E2E2E2E2E2E2E2E2E2E2E2E2E2E2E2E2E2E2E2E2E2E2E2E2E2E2E2E2E2E2E2E2E2E2E2E2E2E2E2E2E2E2E2E2E2E2E2E2E2E2E2E2E2E2E2E2E2E2E2E2E2E2E2E2E2E2E2E2E2E2E2E2E2E2E2E2E2E2E2E2E2E2F5F5EFF5E2E2E2E2E2E2E2E2E2E2E2E2E2E2E2E2E2E2
310
E2E2E2E2E2E2E2E2E2E2E2E2E2E2E2E2E2E2E2E2E2E2E2E2E2E2E2E2E2E2E2E2E2E2E2E2E2E2E2E2E2E2E2E2E2E2E2E2E2E2E2E2E2E2E2E2E2E2E2E2E2E2E2E2E2E2E2E2E2E2E2E2E2E2E2E2E2E2E2E2E2E2E2E2E2E2E2E2E2E2E2E2E2E2E2E2E2E2E2E2E2E2E2E2E2E2E2E2E2E2E2E2E2E2E2E2E2E2E2E2E2E2E2E2E2E2E2
310
E2E2E2E2E2E2E2E2E2E2E2E2E2E2E2E2E2E2E2E2E2E2E2E2E2E2E2E2E2E2E2F5F5EFF5E2E2E2E2E2E2E2E2E2E2E2E2E2E2E2E2E2E2E2E2E2E2E2E2E2E2E2E2E2E2E2E2E2E2E2E2E2E2E2E2E2E2E2E2E2E2E2E2E2E2E2E2E2E2E2E2E2E2E2E2E2E2E2E2E2E2E2E2E2E2E2E2E2E2E2E2E2E2E2E2E2E2E2E2E2E2E2E2E2E2E2E2
310
E2E2E2E2E2E2E2E2E2E2E2E2E2E2E2E2E2E2E2E2E2E2E2E2E2E2E2E2E2E2E2E2E2E2E2E2E2E2E2E2E2E2E2E2E2E2E2E2E2E2E2E2E2E2E2E2E2E2E2E2E2E2E2E2E2E2E2E2E2E2E2E2E2E2E2E2E2E2E2E2E2E2E2E2F5F5EFF5E2E2E2E2E2E2E2E2E2E2E2E2E2E2E2E2E2E2E2E2E2E2E2E2E2E2E2E2E2E2E2E2E2E2E2E2E2E2E2
310
E2E2E2E2E2E2E2E2E2E2E2E2E2E2E2E2E2E2E2E2E2E2E2E2E2E2E2E2E2E2E2E2E2E2E2E2E2E2E2E2E2E2E2E2E2E2E2E2E2E2E2E2E2E2E2E2E2E2E2E2E2E2E2E2E2E2E2E2E2E2E2E2E2E2E2E2E2E2E2E2E2E2E2E2E2E2E2E2E2E2E2E2E2E2E2E2E2E2E2E2E2E2E2E2E2E2E2E2E2E2E2E2E2E2E2E2E2E2E2E2E2E2E2E2E2E2E2
310
E2E2E2E2E2E2E2E2E2E2F5F5EFF5E2E2E2E2E2E2E2E2E2E2E2E2E2E2E2E2E2E2E2E2E2E2E2E2E2E2E2E2E2E2E2E2E2E2E2E2E2E2E2E2E2E2E2E2E2E2E2E2E2E2E2E2E2E2E2E2E2E2E2E2E2E2E2E2E2E2E2E2E2E2E2E2E2E2E2E2E2E2E2E2E2E2E2E2E2E2E2E2E2E2E2E2E2E2E2E2E2E2E2E2E2E2E2E2E2E2E2E2E2E2E2E2E2
310
E2E2E2E2E2E2E2E2E2E2E2E2E2E2E2E2E2E2E2E2E2E2E2E2E2E2E2E2E2E2E2E2E2E2E2E2E2E2E2E2E2E2E2E2E2E2E2E2E2E2E2E2E2E2E2E2E2E2E2E2E2E2E2F5F5EFF5E2E2E2E2E2E2E2E2E2E2E2E2E2E2E2E2E2E2E2E2E2E2E2E2E2E2E2E2E2E2E2E2E2E2E2E2E2E2E2E2E2E2E2E2E2E2E2E2E2E2E2E2E2E2E2E2E2E2E2E2
310
E2E2E2E2E2E2E2E2E2E2E2E2E2E2E2E2E2E2E2E2E2E2E2E2E2E2E2E2E2E2E2E2E2E2E2E2E2E2E2E2E2E2E2E2E2E2E2E2E2E2E2E2E2E2E2E2E2E2E2E2E2E2E2E2E2E2E2E2E2E2E2E2E2E2E2E2E2E2E2E2E2E2E2E2E2E2E2E2E2E2E2E2E2E2E2E2E2E2E2E2E2E2E2E2E2E2E2E2E2E2E2E2E2E2E2E2F5F5EFF5E2E2E2E2E2E2E2
310
E2E2E2E2E2E2E2E2E2E2E2E2E2E2E2E2E2E2E2E2E2E2E2E2E2E2E2E2E2E2E2E2E2E2E2E2E2E2E2E2E2E2E2E2E2E2E2E2E2E2E2E2E2E2E2E2E2E2E2E2E2E2E2E2E2E2E2E2E2E2E2E2E2E2E2E2E2E2E2E2E2E2E2E2E2E2E2E2E2E2E2E2E2E2E2E2E2E2E2E2E2E2E2E2E2E2E2E2E2E2E2E2E2E2E2E2E2E2E2E2E2E2E2E2E2E2E2
310
E2E2E2E2E2E2E2E2E2E2E2E2E2E2E2E2E2E2E2E2E2E2E2E2E2E2E2E2E2E2E2E2E2E2E2E2E2E2E2E2E2E2F5F5EFF5E2E2F5E2E2E2E2E2E2E2E2E2E2E2E2E2E2E2E2E2E2E2E2E2E2E2E2E2E2E2E2E2E2E2E2E2E2E2E2E2E2E2E2E2E2E2E2E2E2E2E2E2E2E2E2E2E2E2E2E2E2E2E2E2E2E2E2E2E2E2E2E2E2E2E2E2E2E2E2E2E2
310
E2E2E2E2E2E2E2E2E2E2E2E2E2E2E2E2E2E2E2E2E2E2E2E2E2E2E2E2E2E2E2E2E2E2E2E2E2E2E2E2E2E2E2E2E2E2E2E2E2E2E2E2E2E2E2E2E2E2E2E2E2E2E2E2E2E2E2E2E2E2E2E2E2E2E2E2E2E2E2E2E2E2E2E2E2E2E2E2E2E2E2E2F5E2E2F5F5EFF5E2E2F5E2E2E2E2E2E2E2E2E2E2E2E2E2E2E2E2E2E2E2E2E2E2E2E2E2
310
E2E2E2E2E2E2E2E2E2E2E2E2E2E2E2E2E2E2E2E2E2E2E2E2E2E2E2E2E2E2E2E2E2E2E2E2E2E2E2E2E2E2E2E2E2E2E2E2E2E2E2E2E2E2E2E2E2E2E2E2E2E2E2E2E2E2E2E2E2E2E2E2E2E2E2E2E2E2E2E2E2E2E2E2E2E2E2E2E2E2E2E2E2E2E2E2E2E2E2E2E2E2E2E2E2E2E2E2E2E2E2E2E2E2E2E2E2E2E2E2E2E2E2E2E2E2E2
310
E2E2E2E2E2E2E2E2E2E2E2E2E2E2E2E2E2E2F5E2E2F5F5EFF5E2E2F5E2E2E2E2E2E2E2E2E2E2E2E2E2E2E2E2E2E2E2E2E2E2E2E2E2E2E2E2E2E2E2E2E2E2E2E2E2E2E2E2E2E2E2E2E2E2E2E2E2E2E2E2E2E2E2E2E2E2E2E2E2E2E2E2E2E2E2E2E2E2E2E2E2E2E2E2E2E2E2E2E2E2E2E2E2E2E2E2E2E2E2E2E2E2E2E2E2E2E2
310
E2E2E2E2E2E2E2E2E2E2E2E2E2E2E2E2E2E2E2E2E2E2E2E2E2E2E2E2E2E2E2E2E2E2E2E2E2E2E2E2E2E2E2E2E2E2E2E2E2E2E2E2E2E2E2E2E2E2E2E2E2E2E2E2E2E2E2E2E2E2E2F5E2E2F5F5EFF5E2E2F5E2E2E2E2E2E2E2E2E2E2E2E2E2E2E2E2E2E2E2E2E2E2E2E2E2E2E2E2E2E2E2E2E2E2E2E2E2E2E2E2E2E2E2E2E2E2
310
E2E2E2E2E2E2E2E2E2E2E2E2E2E2E2E2E2E2E2E2E2E2E2E2E2E2E2E2E2E2E2E2E2E2E2E2E2E2E2E2E2E2E2E2E2E2E2E2E2E2E2E2E2E2E2E2E2E2E2E2E2E2E2E2E2E2E2E2E2E2E2E2E2E2E2E2E2E2E2E2E2E2E2E2E2E2E2E2E2E2E2E2E2E2E2E2E2E2E2E2E2E2E2E2E2E2E2E2E2E2E2E2E2E2E2E2E2E2E2E2E2E2E2E2F5E2E2
310
F5F5EFF5E2E2F5E2E2E2E2E2E2E2E2E2E2E2E2E2E2E2E2E2E2E2E2E2E2E2E2E2E2E2E2E2E2E2E2E2E2E2E2E2E2E2E2E2E2E2E2E2E2E2E2E2E2E2E2E2E2E2E2E2E2E2E2E2E2E2E2E2E2E2E2E2E2E2E2E2E2E2E2E2E2E2E2E2E2E2E2E2E2E2E2E2E2E2E2E2E2E2E2E2E2E2E2E2E2E2E2E2E2E2E2E2E2E2E2E2E2E2E2E2E2E2E2
310
E2E2E2E2E2E2E2E2E2E2E2E2E2E2E2E2E2E2E2E2E2E2E2E2E2E2E2E2E2E2E2E2E2E2E2E2E2E2E2E2E2E2E2E2E2E2E2E2E2E2F5E2E2F5F5EFF5E2E2F5E2E2E2E2E2E2E2E2E2E2E2E2E2E2E2E2E2E2E2E2E2E2E2E2E2E2E2E2E2E2E2E2E2E2E2E2E2E2E2E2E2E2E2E2E2E2E2E2E2E2E2E2E2E2E2E2E2E2E2E2E2E2E2E2E2E2E2
310
E2E2E2E2E2E2E2E2E2E2E2E2E2E2E2E2E2E2E2E2E2E2E2E2E2E2E2E2E2E2E2E2E2E2E2E2E2E2E2E2E2E2E2E2E2E2E2E2E2E2E2E2E2E2E2E2E2E2E2E2E2E2E2E2E2E2E2E2E2E2E2E2E2E2E2E2E2E2E2E2E2E2E2E2E2E2E2E2E2E2E2E2E2E2E2E2E2E2E2E2E2E2E2F5E2E2F5F5EFF5E2E2F5E2E2E2E2E2E2E2E2E2E2E2E2E2E2
310
E2E2E2E2E2E2E2E2E2E2E2E2E2E2E2E2E2E2E2E2E2E2E2E2E2E2E2E2E2E2E2E2E2E2E2E2E2E2E2E2E2E2E2E2E2E2E2E2E2E2E2E2E2E2E2E2E2E2E2E2E2E2E2E2E2E2E2E2E2E2E2E2E2E2E2E2E2E2E2E2E2E2E2E2E2E2E2E2E2E2E2E2E2E2E2E2E2E2E2E2E2E2E2E2E2E2E2E2E2E2E2E2E2E2E2E2E2E2E2E2E2E2E2E2E2E2E2
310
E2E2E2E2E2E2E2E2E2E2E2E2E2E2E2E2E2E2E2E2E2E2E2E2E2E2E2E2E2F5E2E2F5F5EFF5E2E2F5E2E2E2E2E2E2E2E2E2E2E2E2E2E2E2E2E2E2E2E2E2E2E2E2E2E2E2E2E2E2E2E2E2E2E2E2E2E2E2E2E2E2E2E2E2E2E2E2E2E2E2E2E2E2E2E2E2E2E2E2E2E2E2E2E2E2E2E2E2E2E2E2E2E2E2E2E2E2E2E2E2E2E2E2E2E2E2E2
310
E2E2E2E2E2E2E2E2E2E2E2E2E2E2E2E2E2E2E2E2E2E2E2E2E2E2E2E2E2E2E2E2E2E2E2E2E2E2E2E2E2E2E2E2E2E2E2E2E2E2E2E2E2E2E2E2E2E2E2E2E2E2E2E2E2E2E2E2E2E2E2E2E2E2E2E2E2E2E2E2E2E2F5E2E2F5F5EFF5E2E2F5E2E2E2E2E2E2E2E2E2E2E2E2E2E2E2E2E2E2E2E2E2E2E2E2E2E2E2E2E2E2E2E2E2E2E2
310
E2E2E2E2E2E2E2E2E2E2E2E2E2E2E2E2E2E2E2E2E2E2E2E2E2E2E2E2E2E2E2E2E2E2E2E2E2E2E2E2E2E2E2E2E2E2E2E2E2E2E2E2E2E2E2E2E2E2E2E2E2E2E2E2E2E2E2E2E2E2E2E2E2E2E2E2E2E2E2E2E2E2E2E2E2E2E2E2E2E2E2E2E2E2E2E2E2E2E2E2E2E2E2E2E2E2E2E2E2E2E2E2E2E2E2E2E2E2E2E2E2E2E2E2E2E2E2
310
E2E2E2E2E2E2E2E2F5E2E2F5F5EFF5E2E2F5E2E2E2E2E2E2E2E2E2E2E2E2E2E2E2E2E2E2E2E2E2E2E2E2E2E2E2E2E2E2E2E2E2E2E2E2E2E2E2E2E2E2E2E2E2E2E2E2E2E2E2E2E2E2E2E2E2E2E2E2E2E2E2E2E2E2E2E2E2E2E2E2E2E2E2E2E2E2E2E2E2E2E2E2E2E2E2E2E2E2E2E2E2E2E2E2E2E2E2E2E2E2E2E2E2E2E2E2E2
310
E2E2E2E2E2E2E2E2E2E2E2E2E2E2E2E2E2E2E2E2E2E2E2E2E2E2E2E2E2E2E2E2E2E2E2E2E2E2E2E2E2E2E2E2E2E2E2E2E2E2E2E2E2E2E2E2E2E2E2E2E2F5E2E2F5F5EFF5E2E2F5E2E2E2E2E2E2E2E2E2E2E2E2E2E2E2E2E2E2E2E2E2E2E2E2E2E2E2E2E2E2E2E2E2E2E2E2E2E2E2E2E2E2E2E2E2E2E2E2E2E2E2E2E2E2E2E2
310
E2E2E2E2E2E2E2E2E2E2E2E2E2E2E2E2E2E2E2E2E2E2E2E2E2E2E2E2E2E2E2E2E2E2E2E2E2E2E2E2E2E2E2E2E2E2E2E2E2E2E2E2E2E2E2E2E2E2E2E2E2E2E2E2E2E2E2E2E2E2E2E2E2E2E2E2E2E2E2E2E2E2E2E2E2E2E2E2E2E2E2E2E2E2E2E2E2E2E2E2E2E2E2E2E2E2E2E2E2E2E2E2E2E2F5E2E2F5F5EFF5E2E2F5E2E2E2
310
E2E2E2E2E2E2E2E2E2E2E2E2E2E2E2E2E2E2E2E2E2E2E2E2E2E2E2E2E2E2E2E2E2E2E2E2E2E2E2E2E2E2E2E2E2E2E2E2E2E2E2E2E2E2E2E2E2E2E2E2E2E2E2E2E2E2E2E2E2E2E2E2E2E2E2E2E2E2E2E2E2E2E2E2E2E2E2E2E2E2E2E2E2E2E2E2E2E2E2E2E2E2E2E2E2E2E2E2E2E2E2E2E2E2E2E2E2E2E2E2E2E2E2E2E2E2E2
310
E2E2E2E2E2E2E2E2E2E2E2E2E2E2E2E2E2E2E2E2E2E2E2E2E2E2E2E2E2E2E2E2E2E2E2E2E2E2E2E2F5E2E2F5F5EFF5E2E2F5E2E2E2E2E2E2E2E2E2E2E2E2E2E2E2E2E2E2E2E2E2E2E2E2E2E2E2E2E2E2E2E2E2E2E2E2E2E2E2E2E2E2E2E2E2E2E2E2E2E2E2E2E2E2E2E2E2E2E2E2E2E2E2E2E2E2E2E2E2E2E2E2E2E2E2E2E2
310
E2E2E2E2E2E2E2E2E2E2E2E2E2E2E2E2E2E2E2E2E2E2E2E2E2E2E2E2E2E2E2E2E2E2E2E2E2E2E2E2E2E2E2E2E2E2E2E2E2E2E2E2E2E2E2E2E2E2E2E2E2E2E2E2E2E2E2E2E2E2E2E2E2E2E2E2E2E2E2E2E2E2E2E2E2E2E2E2E2E2E2E2E2F5E2E2F5F5EFF5E2E2F5E2E2E2E2E2E2E2E2E2E2E2E2E2E2E2E2E2E2E2E2E2E2E2E2
310
E2E2E2E2E2E2E2E2E2E2E2E2E2E2E2E2E2E2E2E2E2E2E2E2E2E2E2E2E2E2E2E2E2E2E2E2E2E2E2E2E2E2E2E2E2E2E2E2E2E2E2E2E2E2E2E2E2E2E2E2E2E2E2E2E2E2E2E2E2E2E2E2E2E2E2E2E2E2E2E2E2E2E2E2E2E2E2E2E2E2E2E2E2E2E2E2E2E2E2E2E2E2E2E2E2E2E2E2E2E2E2E2E2E2E2E2E2E2E2E2E2E2E2E2E2E2E2
310
E2E2E2E2E2E2E2E2E2E2E2E2E2E2E2E2E2E2E2F5E2E2F5F5EFF5E2E2F5E2E2E2E2E2E2E2E2E2E2E2E2E2E2E2E2E2E2E2E2E2E2E2E2E2E2E2E2E2E2E2E2E2E2E2E2E2E2E2E2E2E2E2E2E2E2E2E2E2E2E2E2E2E2E2E2E2E2E2E2E2E2E2E2E2E2E2E2E2E2E2E2E2E2E2E2E2E2E2E2E2E2E2E2E2E2E2E2E2E2E2E2E2E2E2E2E2E2
310
E2E2E2E2E2E2E2E2E2E2E2E2E2E2E2E2E2E2E2E2E2E2E2E2E2E2E2E2E2E2E2E2E2E2E2E2E2E2E2E2E2E2E2E2E2E2E2E2E2E2E2E2E2E2E2E2E2E2E2E2E2E2E2E2E2E2E2E2E2E2E2E2F5E2E2F5F5EFF5E2E2E2E2E2E2E2E2E2E2E2E2E2E2E2E2E2E2E2E2E2E2E2E2E2E2E2E2E2E2E2E2E2E2E2E2E2E2E2E2E2E2E2E2E2E2E2E2
310
E2E2E2E2E2E2E2E2E2E2E2E2E2E2E2E2E2E2E2E2E2E2E2E2E2E2E2E2E2E2E2E2E2E2E2E2E2E2E2E2E2E2E2E2E2E2E2E2E2E2E2E2E2E2E2E2E2E2E2E2E2E2E2E2E2E2E2E2E2E2E2E2E2E2E2E2E2E2E2E2E2E2E2E2E2E2E2E2E2E2E2E2E2E2E2E2E2E2E2E2E2E2E2E2E2E2E2E2E2E2E2E2E2E2E2E2E2E2E2E2E2E2E2E2E2E2E2
310
E2F5F5EFF5E2E2E2E2E2E2E2E2E2E2E2E2E2E2E2E2E2E2E2E2E2E2E2E2E2E2E2E2E2E2E2E2E2E2E2E2E2E2E2E2E2E2E2E2E2E2E2E2E2E2E2E2E2E2E2E2E2E2E2E2E2E2E2E2E2E2E2E2E2E2E2E2E2E2E2E2E2E2E2E2E2E2E2E2E2E2E2E2E2E2E2E2E2E2E2E2E2E2E2E2E2E2E2E2E2E2E2E2E2E2E2E2E2E2E2E2E2E2E2E2E2E2
310
E2E2E2E2E2E2E2E2E2E2E2E2E2E2E2E2E2E2E2E2E2E2E2E2E2E2E2E2E2E2E2E2E2E2E2E2E2E2E2E2E2E2E2E2E2E2E2E2E2E2E2E2E2E2F5F5EFF5E2E2E2E2E2E2E2E2E2E2E2E2E2E2E2E2E2E2E2E2E2E2E2E2E2E2E2E2E2E2E2E2E2E2E2E2E2E2E2E2E2E2E2E2E2E2E2E2E2E2E2E2E2E2E2E2E2E2E2E2E2E2E2E2E2E2E2E2E2
310
E2E2E2E2E2E2E2E2E2E2E2E2E2E2E2E2E2E2E2E2E2E2E2E2E2E2E2E2E2E2E2E2E2E2E2E2E2E2E2E2E2E2E2E2E2E2E2E2E2E2E2E2E2E2E2E2E2E2E2E2E2E2E2E2E2E2E2E2E2E2E2E2E2E2E2E2E2E2E2E2E2E2E2E2E2E2E2E2E2E2E2E2E2E2E2E2E2E2E2E2E2E2E2E2E2E2E2F5F5EFF5E2E2E2E2E2E2E2E2E2E2E2E2E2E2E2E2
310
E2E2E2E2E2E2E2E2E2E2E2E2E2E2E2E2E2E2E2E2E2E2E2E2E2E2E2E2E2E2E2E2E2E2E2E2E2E2E2E2E2E2E2E2E2E2E2E2E2E2E2E2E2E2E2E2E2E2E2E2E2E2E2E2E2E2E2E2E2E2E2E2E2E2E2E2E2E2E2E2E2E2E2E2E2E2E2E2E2E2E2E2E2E2E2E2E2E2E2E2E2E2E2E2E2E2E2E2E2E2E2E2E2E2E2E2E2E2E2E2E2E2E2E2E2E2E2
310
E2E2E2E2E2E2E2E2E2E2E2E2E2E2E2E2E2E2E2E2E2E2E2E2E2E2E2E2E2E2E2E2E2F5F5EFF5E2E2E2E2E2E2E2E2E2E2E2E2E2E2E2E2E2E2E2E2E2E2E2E2E2E2E2E2E2E2E2E2E2E2E2E2E2E2E2E2E2E2E2E2E2E2E2E2E2E2E2E2E2E2E2E2E2E2E2E2E2E2E2E2E2E2E2E2E2E2E2E2E2E2E2E2E2E2E2E2E2E2E2E2E2E2E2E2E2E2
310
E2E2E2E2E2E2E2E2E2E2E2E2E2E2E2E2E2E2E2E2E2E2E2E2E2E2E2E2E2E2E2E2E2E2E2E2E2E2E2E2E2E2E2E2E2E2E2E2E2E2E2E2E2E2E2E2E2E2E2E2E2E2E2E2E2E2E2E2E2E2E2E2E2E2E2E2E2E2E2E2E2E2E2E2E2E2F5F5EFF5E2E2E2E2E2E2E2E2E2E2E2E2E2E2E2E2E2E2E2E2E2E2E2E2E2E2E2E2E2E2E2E2E2E2E2E2E2
310
E2E2E2E2E2E2E2E2E2E2E2E2E2E2E2E2E2E2E2E2E2E2E2E2E2E2E2E2E2E2E2E2E2E2E2E2E2E2E2E2E2E2E2E2E2E2E2E2E2E2E2E2E2E2E2E2E2E2E2E2E2E2E2E2E2E2E2E2E2E2E2E2E2E2E2E2E2E2E2E2E2E2E2E2E2E2E2E2E2E2E2E2E2E2E2E2E2E2E2E2E2E2E2E2E2E2E2E2E2E2E2E2E2E2E2E2E2E2E2E2E2E2E2E2E2E2E2
310
E2E2E2E2E2E2E2E2E2E2E2E2F5F5EFF5E2E2E2E2E2E2E2E2E2E2E2E2E2E2E2E2E2E2E2E2E2E2E2E2E2E2E2E2E2E2E2E2E2E2E2E2E2E2E2E2E2E2E2E2E2E2E2E2E2E2E2E2E2E2E2E2E2E2E2E2E2E2E2E2E2E2E2E2E2E2E2E2E2E2E2E2E2E2E2E2E2E2E2E2E2E2E2E2E2E2E2E2E2E2E2E2E2E2E2E2E2E2E2E2E2E2E2E2E2E2E2
310
E2E2E2E2E2E2E2E2E2E2E2E2E2E2E2E2E2E2E2E2E2E2E2E2E2E2E2E2E2E2E2E2E2E2E2E2E2E2E2E2E2E2E2E2E2E2E2E2E2E2E2E2E2E2E2E2E2E2E2E2E2E2E2E2E2F5F5EFF5E2E2E2E2E2E2E2E2E2E2E2E2E2E2E2E2E2E2E2E2E2E2E2E2E2E2E2E2E2E2E2E2E2E2E2E2E2E2E2E2E2E2E2E2E2E2E2E2E2E2E2E2E2E2E2E2E2E2
310
E2E2E2E2E2E2E2E2E2E2E2E2E2E2E2E2E2E2E2E2E2E2E2E2E2E2E2E2E2E2E2E2E2E2E2E2E2E2E2E2E2E2E2E2E2E2E2E2E2E2E2E2E2E2E2E2E2E2E2E2E2E2E2E2E2E2E2E2E2E2E2E2E2E2E2E2E2E2E2E2E2E2E2E2E2E2E2E2E2E2E2E2E2E2E2E2E2E2E2E2E2E2E2E2E2E2E2E2E2E2E2E2E2E2E2E2E2E2F5F5EFF5E2E2E2E2E2
310
E2E2E2E2E2E2E2E2E2E2E2E2E2E2E2E2E2E2E2E2E2E2E2E2E2E2E2E2E2E2E2E2E2E2E2E2E2E2E2E2E2E2E2E2E2E2E2E2E2E2E2E2E2E2E2E2E2E2E2E2E2E2E2E2E2E2E2E2E2E2E2E2E2E2E2E2E2E2E2E2E2E2E2E2E2E2E2E2E2E2E2E2E2E2E2E2E2E2E2E2E2E2E2E2E2E2E2E2E2E2E2E2E2E2E2E2E2E2E2E2E2E2E2E2E2E2E2
310
E2E2E2E2E2E2E2E2E2E2E2E2E2E2E2E2E2E2E2E2E2E2E2E2E2E2E2E2E2E2E2E2E2E2E2E2E2E2E2E2E2E2E2E2F5F5EFF5E2E2F5E2E2E2E2E2E2E2E2E2E2E2E2E2E2E2E2E2E2E2E2E2E2E2E2E2E2E2E2E2E2E2E2E2E2E2E2E2E2E2E2E2E2E2E2E2E2E2E2E2E2E2E2E2E2E2E2E2E2E2E2E2E2E2E2E2E2E2E2E2E2E2E2E2E2E2E2
310
E2E2E2E2E2E2E2E2E2E2E2E2E2E2E2E2E2E2E2E2E2E2E2E2E2E2E2E2E2E2E2E2E2E2E2E2E2E2E2E2E2E2E2E2E2E2E2E2E2E2E2E2E2E2E2E2E2E2E2E2E2E2E2E2E2E2E2E2E2E2E2E2E2E2E2E2E2E2E2E2E2E2E2E2E2E2E2E2E2E2E2E2E2E2F5E2E2F5F5EFF5E2E2F5E2E2E2E2E2E2E2E2E2E2E2E2E2E2E2E2E2E2E2E2E2E2E2
310
E2E2E2E2E2E2E2E2E2E2E2E2E2E2E2E2E2E2E2E2E2E2E2E2E2E2E2E2E2E2E2E2E2E2E2E2E2E2E2E2E2E2E2E2E2E2E2E2E2E2E2E2E2E2E2E2E2E2E2E2E2E2E2E2E2E2E2E2E2E2E2E2E2E2E2E2E2E2E2E2E2E2E2E2E2E2E2E2E2E2E2E2E2E2E2E2E2E2E2E2E2E2E2E2E2E2E2E2E2E2E2E2E2E2E2E2E2E2E2E2E2E2E2E2E2E2E2
310
E2E2E2E2E2E2E2E2E2E2E2E2E2E2E2E2E2E2E2E2F5E2E2F5F5EFF5E2E2F5E2E2E2E2E2E2E2E2E2E2E2E2E2E2E2E2E2E2E2E2E2E2E2E2E2E2E2E2E2E2E2E2E2E2E2E2E2E2E2E2E2E2E2E2E2E2E2E2E2E2E2E2E2E2E2E2E2E2E2E2E2E2E2E2E2E2E2E2E2E2E2E2E2E2E2E2E2E2E2E2E2E2E2E2E2E2E2E2E2E2E2E2E2E2E2E2E2
310
E2E2E2E2E2E2E2E2E2E2E2E2E2E2E2E2E2E2E2E2E2E2E2E2E2E2E2E2E2E2E2E2E2E2E2E2E2E2E2E2E2E2E2E2E2E2E2E2E2E2E2E2E2E2E2E2E2E2E2E2E2E2E2E2E2E2E2E2E2E2E2E2E2F5E2E2F5F5EFF5E2E2F5E2E2E2E2E2E2E2E2E2E2E2E2E2E2E2E2E2E2E2E2E2E2E2E2E2E2E2E2E2E2E2E2E2E2E2E2E2E2E2E2E2E2E2E2
310
E2E2E2E2E2E2E2E2E2E2E2E2E2E2E2E2E2E2E2E2E2E2E2E2E2E2E2E2E2E2E2E2E2E2E2E2E2E2E2E2E2E2E2E2E2E2E2E2E2E2E2E2E2E2E2E2E2E2E2E2E2E2E2E2E2E2E2E2E2E2E2E2E2E2E2E2E2E2E2E2E2E2E2E2E2E2E2E2E2E2E2E2E2E2E2E2E2E2E2E2E2E2E2E2E2E2E2E2E2E2E2E2E2E2E2E2E2E2E2E2E2E2E2E2E2E2F5
310
E2E2F5F5EFF5E2E2F5E2E2E2E2E2E2E2E2E2E2E2E2E2E2E2E2E2E2E2E2E2E2E2E2E2E2E2E2E2E2E2E2E2E2E2E2E2E2E2E2E2E2E2E2E2E2E2E2E2E2E2E2E2E2E2E2E2E2E2E2E2E2E2E2E2E2E2E2E2E2E2E2E2E2E2E2E2E2E2E2E2E2E2E2E2E2E2E2E2E2E2E2E2E2E2E2E2E2E2E2E2E2E2E2E2E2E2E2E2E2E2E2E2E2E2E2E2E2
310
E2E2E2E2E2E2E2E2E2E2E2E2E2E2E2E2E2E2E2E2E2E2E2E2E2E2E2E2E2E2E2E2E2E2E2E2E2E2E2E2E2E2E2E2E2E2E2E2E2E2E2E2F5E2E2F5F5EFF5E2E2F5E2E2E2E2E2E2E2E2E2E2E2E2E2E2E2E2E2E2E2E2E2E2E2E2E2E2E2E2E2E2E2E2E2E2E2E2E2E2E2E2E2E2E2E2E2E2E2E2E2E2E2E2E2E2E2E2E2E2E2E2E2E2E2E2E2
310
E2E2E2E2E2E2E2E2E2E2E2E2E2E2E2E2E2E2E2E2E2E2E2E2E2E2E2E2E2E2E2E2E2E2E2E2E2E2E2E2E2E2E2E2E2E2E2E2E2E2E2E2E2E2E2E2E2E2E2E2E2E2E2E2E2E2E2E2E2E2E2E2E2E2E2E2E2E2E2E2E2E2E2E2E2E2E2E2E2E2E2E2E2E2E2E2E2E2E2E2E2E2E2E2E2F5E2E2F5F5EFF5E2E2F5E2E2E2E2E2E2E2E2E2E2E2E2
310
E2E2E2E2E2E2E2E2E2E2E2E2E2E2E2E2E2E2E2E2E2E2E2E2E2E2E2E2E2E2E2E2E2E2E2E2E2E2E2E2E2E2E2E2E2E2E2E2E2E2E2E2E2E2E2E2E2E2E2E2E2E2E2E2E2E2E2E2E2E2E2E2E2E2E2E2E2E2E2E2E2E2E2E2E2E2E2E2E2E2E2E2E2E2E2E2E2E2E2E2E2E2E2E2E2E2E2E2E2E2E2E2E2E2E2E2E2E2E2E2E2E2E2E2E2E2E2
310
E2E2E2E2E2E2E2E2E2E2E2E2E2E2E2E2E2E2E2E2E2E2E2E2E2E2E2E2E2E2E2F5E2E2F5F5EFF5E2E2F5F5F5F5F5F5F5F5E2E2E2E2E2E2E2E2E2F5F5F5F5F5F5F5F5F5F5F5F5F5F5F5F5E2E2E2E2E2E2E2E2E2F5F5F5F5F5F5F5F5F5F5F5F5F5F5F5E2E2E2E2E2E2E2E2E2F5F5F5F5F5F5F5F5F5F5F5F5F5F5F5F5E2E2E2E2E2
310
E2E2E2F5F5F5F5F5F5F5F5F5F5F5F5F5F5F5F5E2E2E2E2E2E2E2E2E2F5F5F5F5F5F5F5F5F5F5F5F5F5F5F5E2E2E2E2E2E2E2E2E2F5F5F5F5F5F5F5F5F5F5F5F5F5F5F5F5E2E2E2E2E2E2E2E2E2F5F5F5F5F5F5F5F5E2E2F5F5EFF5E2E2E2E2E2E2E2E2E2E2E2E2E2E2E2E2E2E2E2E2E2E2E2E2E2E2E2E2E2E2E2E2E2E2E2E2
310
E2E2E2E2E2E2E2E2E2E2E2E2E2E2E2E2E2E2E2E2E2E2E2E2E2E2E2E2E2E2E2E2E2E2E2E2E2E2E2E2E2E2E2E2E2E2E2E2E2E2E2E2E2E2E2E2E2E2E2E2E2E2E2E2E2E2E2E2E2E2E2E2E2E2E2E2E2E2E2E2E2E2E2E2E2E2E2E2E2E2E2E2E2E2E2E2E2E2E2E2E2E2E2E2E2E2E2E2E2E2E2E2E2E2E2E2E2E2E2E2E2E2E2E2E2E2E2
310
E2E2E2E2E2E2E2E2E2E2E2E2E2F5F5EFF5E2E2E2E2E2E2E2E2E2E2E2E2E2E2E2E2E2E2E2E2E2E2E2E2E2E2E2E2E2E2E2E2E2E2E2E2E2E2E2E2E2E2E2E2E2E2E2E2E2E2E2E2E2E2E2E2E2E2E2E2E2E2E2E2E2E2E2E2E2E2E2E2E2E2E2E2E2E2E2E2E2E2E2E2E2E2E2E2E2E2E2E2E2E2E2E2E2E2E2E2E2E2E2E2E2E2E2E2E2E2
310
E2E2E2E2E2E2E2E2E2E2E2E2E2E2E2E2E2E2E2E2E2E2E2E2E2E2E2E2E2E2E2E2E2E2E2E2E2E2E2E2E2E2E2E2E2E2E2E2E2E2E2E2E2E2E2E2E2E2E2E2E2E2E2E2E2E2F5F5EFF5E2E2E2E2E2E2E2E2E2E2E2E2E2E2E2E2E2E2E2E2E2E2E2E2E2E2E2E2E2E2E2E2E2E2E2E2E2E2E2E2E2E2E2E2E2E2E2E2E2E2E2E2E2E2E2E2E2
310
E2E2E2E2E2E2E2E2E2E2E2E2E2E2E2E2E2E2E2E2E2E2E2E2E2E2E2E2E2E2E2E2E2E2E2E2E2E2E2E2E2E2E2E2E2E2E2E2E2E2E2E2E2E2E2E2E2E2E2E2E2E2E2E2E2E2E2E2E2E2E2E2E2E2E2E2E2E2E2E2E2E2E2E2E2E2E2E2E2E2E2E2E2E2E2E2E2E2E2E2E2E2E2E2E2E2E2E2E2E2E2E2E2E2E2E2E2E2E2F5EFEFF5F5F5F5F5
310
F5F5F5F5F5F5F5F5F5F5F5F5F5F5F5F5F5F5F5F5F5F5F5F5F5F5F5F5F5F5F5F5F5F5F5F5F5F5F5F5F5F5F5F5F5F5F5F5F5F5F5F5F5F5F5F5F5F5F5F5F5F5F5F5F5F5F5F5F5F5F5F5F5F5F5F5F5F5F5F5F5F5F5F5F5F5F5F5F5F5F5F5F5F5F5F5F5F5F5F5F5F5F5F5F5F5F5F5F5F5F5F5F5F5F5F5F5F5F5F5F5F5F5F5F5F5F5
310
F5F5F5F5F5F5F5F5F5F5F5F5F5F5F5F5F5F5F5F5F5F5F5F5F5F5F5F5F5F5F5F5F5F5F5F5F5F5F5F5F5F5F5F5F5F5EFEF
  0
XRECORD
  5
27C
102
{ACAD_REACTORS
330
42
102
}
330
42
100
AcDbXrecord
280
     1
102
MATERIAL
148
0.0
149
0.0
149
0.0
 93
        0
 94
      127
282
     0
 72
     0
 77
     0
171
     0
175
     0
179
     0
273
     0
  0
XRECORD
  5
43
102
{ACAD_REACTORS
330
42
102
}
330
42
100
AcDbXrecord
280
     1
270
     1
271
     1
  0
XRECORD
  5
44
102
{ACAD_REACTORS
330
42
102
}
330
42
100
AcDbXrecord
280
     1
270
     1
271
     1
  0
XRECORD
  5
45
102
{ACAD_REACTORS
330
42
102
}
330
42
100
AcDbXrecord
280
     1
270
     1
271
     1
  0
XRECORD
  5
46
102
{ACAD_REACTORS
330
42
102
}
330
42
100
AcDbXrecord
280
     1
270
     1
271
     1
  0
XRECORD
  5
47
102
{ACAD_REACTORS
330
42
102
}
330
42
100
AcDbXrecord
280
     1
270
     1
271
     1
  0
XRECORD
  5
48
102
{ACAD_REACTORS
330
42
102
}
330
42
100
AcDbXrecord
280
     1
270
     1
271
     1
  0
XRECORD
  5
27B
102
{ACAD_REACTORS
330
3A
102
}
330
3A
100
AcDbXrecord
280
     1
102
MATERIAL
148
0.0
149
0.0
149
0.0
 93
        0
 94
      127
282
     0
 72
     0
 77
     0
171
     0
175
     0
179
     0
273
     0
  0
XRECORD
  5
3B
102
{ACAD_REACTORS
330
3A
102
}
330
3A
100
AcDbXrecord
280
     1
270
     1
271
     1
  0
XRECORD
  5
3C
102
{ACAD_REACTORS
330
3A
102
}
330
3A
100
AcDbXrecord
280
     1
270
     1
271
     1
  0
XRECORD
  5
3D
102
{ACAD_REACTORS
330
3A
102
}
330
3A
100
AcDbXrecord
280
     1
270
     1
271
     1
  0
XRECORD
  5
3E
102
{ACAD_REACTORS
330
3A
102
}
330
3A
100
AcDbXrecord
280
     1
270
     1
271
     1
  0
XRECORD
  5
3F
102
{ACAD_REACTORS
330
3A
102
}
330
3A
100
AcDbXrecord
280
     1
270
     1
271
     1
  0
XRECORD
  5
40
102
{ACAD_REACTORS
330
3A
102
}
330
3A
100
AcDbXrecord
280
     1
270
     1
271
     1
  0
XRECORD
  5
27A
102
{ACAD_REACTORS
330
E
102
}
330
E
100
AcDbXrecord
280
     1
102
MATERIAL
148
0.0
149
0.0
149
0.0
 93
        0
 94
      127
282
     0
 72
     0
 77
     0
171
     0
175
     0
179
     0
273
     0
  0
XRECORD
  5
F
102
{ACAD_REACTORS
330
E
102
}
330
E
100
AcDbXrecord
280
     1
270
     1
271
     1
  0
XRECORD
  5
10
102
{ACAD_REACTORS
330
E
102
}
330
E
100
AcDbXrecord
280
     1
270
     1
271
     1
  0
XRECORD
  5
11
102
{ACAD_REACTORS
330
E
102
}
330
E
100
AcDbXrecord
280
     1
270
     1
271
     1
  0
XRECORD
  5
12
102
{ACAD_REACTORS
330
E
102
}
330
E
100
AcDbXrecord
280
     1
270
     1
271
     1
  0
XRECORD
  5
13
102
{ACAD_REACTORS
330
E
102
}
330
E
100
AcDbXrecord
280
     1
270
     1
271
     1
  0
XRECORD
  5
14
102
{ACAD_REACTORS
330
E
102
}
330
E
100
AcDbXrecord
280
     1
270
     1
271
     1
  0
CELLSTYLEMAP
  5
279
102
{ACAD_REACTORS
330
51
102
}
330
51
100
AcDbCellStyleMap
 90
        3
300
CELLSTYLE
  1
TABLEFORMAT_BEGIN
 90
        5
170
     1
 91
        0
 92
    32768
 62
   257
 93
        1
300
CONTENTFORMAT
  1
CONTENTFORMAT_BEGIN
 90
        0
 91
        0
 92
      512
 93
        0
300

 40
0.0
140
1.0
 94
        5
 62
     0
340
26
144
0.25
309
CONTENTFORMAT_END
171
     1
301
MARGIN
  1
CELLMARGIN_BEGIN
 40
0.06
 40
0.06
 40
0.06
 40
0.06
 40
0.18
 40
0.18
309
CELLMARGIN_END
 94
        6
 95
        1
302
GRIDFORMAT
  1
GRIDFORMAT_BEGIN
 90
        0
 91
        1
 62
     0
 92
       -2
340
0
 93
        0
 40
0.045
309
GRIDFORMAT_END
 95
        2
302
GRIDFORMAT
  1
GRIDFORMAT_BEGIN
 90
        0
 91
        1
 62
     0
 92
       -2
340
0
 93
        0
 40
0.045
309
GRIDFORMAT_END
 95
        4
302
GRIDFORMAT
  1
GRIDFORMAT_BEGIN
 90
        0
 91
        1
 62
     0
 92
       -2
340
0
 93
        0
 40
0.045
309
GRIDFORMAT_END
 95
        8
302
GRIDFORMAT
  1
GRIDFORMAT_BEGIN
 90
        0
 91
        1
 62
     0
 92
       -2
340
0
 93
        0
 40
0.045
309
GRIDFORMAT_END
 95
       16
302
GRIDFORMAT
  1
GRIDFORMAT_BEGIN
 90
        0
 91
        1
 62
     0
 92
       -2
340
0
 93
        0
 40
0.045
309
GRIDFORMAT_END
 95
       32
302
GRIDFORMAT
  1
GRIDFORMAT_BEGIN
 90
        0
 91
        1
 62
     0
 92
       -2
340
0
 93
        0
 40
0.045
309
GRIDFORMAT_END
309
TABLEFORMAT_END
  1
CELLSTYLE_BEGIN
 90
        1
 91
        1
300
_TITLE
309
CELLSTYLE_END
300
CELLSTYLE
  1
TABLEFORMAT_BEGIN
 90
        5
170
     1
 91
        0
 92
        0
 62
   257
 93
        1
300
CONTENTFORMAT
  1
CONTENTFORMAT_BEGIN
 90
        0
 91
        0
 92
      512
 93
        0
300

 40
0.0
140
1.0
 94
        5
 62
     0
340
26
144
0.18
309
CONTENTFORMAT_END
171
     1
301
MARGIN
  1
CELLMARGIN_BEGIN
 40
0.06
 40
0.06
 40
0.06
 40
0.06
 40
0.18
 40
0.18
309
CELLMARGIN_END
 94
        6
 95
        1
302
GRIDFORMAT
  1
GRIDFORMAT_BEGIN
 90
        0
 91
        1
 62
     0
 92
       -2
340
0
 93
        0
 40
0.045
309
GRIDFORMAT_END
 95
        2
302
GRIDFORMAT
  1
GRIDFORMAT_BEGIN
 90
        0
 91
        1
 62
     0
 92
       -2
340
0
 93
        0
 40
0.045
309
GRIDFORMAT_END
 95
        4
302
GRIDFORMAT
  1
GRIDFORMAT_BEGIN
 90
        0
 91
        1
 62
     0
 92
       -2
340
0
 93
        0
 40
0.045
309
GRIDFORMAT_END
 95
        8
302
GRIDFORMAT
  1
GRIDFORMAT_BEGIN
 90
        0
 91
        1
 62
     0
 92
       -2
340
0
 93
        0
 40
0.045
309
GRIDFORMAT_END
 95
       16
302
GRIDFORMAT
  1
GRIDFORMAT_BEGIN
 90
        0
 91
        1
 62
     0
 92
       -2
340
0
 93
        0
 40
0.045
309
GRIDFORMAT_END
 95
       32
302
GRIDFORMAT
  1
GRIDFORMAT_BEGIN
 90
        0
 91
        1
 62
     0
 92
       -2
340
0
 93
        0
 40
0.045
309
GRIDFORMAT_END
309
TABLEFORMAT_END
  1
CELLSTYLE_BEGIN
 90
        2
 91
        1
300
_HEADER
309
CELLSTYLE_END
300
CELLSTYLE
  1
TABLEFORMAT_BEGIN
 90
        5
170
     1
 91
        0
 92
        0
 62
   257
 93
        1
300
CONTENTFORMAT
  1
CONTENTFORMAT_BEGIN
 90
        0
 91
        0
 92
      512
 93
        0
300

 40
0.0
140
1.0
 94
        2
 62
     0
340
26
144
0.18
309
CONTENTFORMAT_END
171
     1
301
MARGIN
  1
CELLMARGIN_BEGIN
 40
0.06
 40
0.06
 40
0.06
 40
0.06
 40
0.18
 40
0.18
309
CELLMARGIN_END
 94
        6
 95
        1
302
GRIDFORMAT
  1
GRIDFORMAT_BEGIN
 90
        0
 91
        1
 62
     0
 92
       -2
340
0
 93
        0
 40
0.045
309
GRIDFORMAT_END
 95
        2
302
GRIDFORMAT
  1
GRIDFORMAT_BEGIN
 90
        0
 91
        1
 62
     0
 92
       -2
340
0
 93
        0
 40
0.045
309
GRIDFORMAT_END
 95
        4
302
GRIDFORMAT
  1
GRIDFORMAT_BEGIN
 90
        0
 91
        1
 62
     0
 92
       -2
340
0
 93
        0
 40
0.045
309
GRIDFORMAT_END
 95
        8
302
GRIDFORMAT
  1
GRIDFORMAT_BEGIN
 90
        0
 91
        1
 62
     0
 92
       -2
340
0
 93
        0
 40
0.045
309
GRIDFORMAT_END
 95
       16
302
GRIDFORMAT
  1
GRIDFORMAT_BEGIN
 90
        0
 91
        1
 62
     0
 92
       -2
340
0
 93
        0
 40
0.045
309
GRIDFORMAT_END
 95
       32
302
GRIDFORMAT
  1
GRIDFORMAT_BEGIN
 90
        0
 91
        1
 62
     0
 92
       -2
340
0
 93
        0
 40
0.045
309
GRIDFORMAT_END
309
TABLEFORMAT_END
  1
CELLSTYLE_BEGIN
 90
        3
 91
        2
300
_DATA
309
CELLSTYLE_END
  0
XRECORD
  5
27D
102
{ACAD_REACTORS
330
51
102
}
330
51
100
AcDbXrecord
280
     1
102
ACAD_ROUNDTRIP_PRE2007_TABLESTYLE
 90
      512
 91
        0
  1

 92
      512
 93
        0
  2

 94
      512
 95
        0
  3

  0
ENDSEC
  0
EOF
